Oops, an error
Loading. Please wait.

Exhilarate Tab

version 1
version 1

Solo

Interactive

3,031 views 15 this week
no commentswrite comment
1 2 3 4 5
excellent!
x 1
add to favorites
launch autoscroll
font size
0
reset
how to read this tab
guitar tuner
Tab Pro tools
  • play this tab
  • loop segment
  • change instrument
  • show fretboard
  • metronome
Autoscroll
slow
fast
+/-
esc
set tempo
stop
Contributor
Tuning
Tabbers playing skills
C G C F A D
advanced +
Born of Osiris - Exhilarate
Tuning - Drop C
Tabbed by Lorcan Ward
Guitar Solo at 2:35

Watch my guitar cover here:
http://www.youtube.com/watch?v=VDAZTxlZvP0

|----------------------------------------------------------------------|
|----------------------13----------------------------------------------|
|---------------------------10~~~~~--10--10---14-----------------------|
|--/8~~~-8-8-8---8-----------------------------------12b13r12~~~--\----|
|----------------------------------------------------------------------|
|----------------------------------------------------------------------|

|--------------13h17p13----------13h17-t20p17p13h17----t20b22----------|
|-----------15----------15----15---------------------------------------|
|--------14----------------14------------------------------------------|
|-----15---------------------------------------------------------------|
|--17------------------------------------------------------------------|
|----------------------------------------------------------------------|

|--17-t20p15---15h17--13---13h15--12---(12)\---12h13p12p10-------------|
|-----------------------------------------------------------13p11p10---|
|----------------------------------------------------------------------|
|----------------------------------------------------------------------|
|----------------------------------------------------------------------|
|----------------------------------------------------------------------|

|-----------------------------------------10h12h13---------------------|
|--------------------------------10h11h13------------------------------|
|--12p10p9---------------9h10h12---------------------------------------|
|----------12p10p8h10h12-----------------------------------------------|
|----------------------------------------------------------------------|
|----------------------------------------------------------------------|

|---------------------------------17-17-13-13--20-20-17-17-------------|
|--------------------18-18-15-15---------------------------18-18-------|
|------17-17-----------------------------------------------------17-17-|
|-------------15-15----------------------------------------------------|
|--13------------------------------------------------------------------|
|----------------------------------------------------------------------|

|-------------------------------|
|--17-17------------------------|
|---------12-12-----------------|
|---------------14-14-----------|
|---------------------15--------|
|-------------------------------|

|---------------------------------17-17-13-13--------13h17p13----------|
|--------------------18-18-15-15---------------15-17----------17-15-13-|
|------17-17-----------------------------------------------------------|
|-------------15-15----------------------------------------------------|
|--13------------------------------------------------------------------|
|----------------------------------------------------------------------|

|-------------------------------|
|-------------------------------|
|--15-14----------------14------|
|--------17-15-14-15-17---------|
|-------------------------------|
|-------------------------------|

|---------------------------------17-17-13-13--20-20-17-17-------------|
|--------------------18-18-15-15---------------------------18-18-------|
|------17-17-----------------------------------------------------17-17-|
|-------------15-15----------------------------------------------------|
|--13------------------------------------------------------------------|
|----------------------------------------------------------------------|

|-------------------------------|
|--17-17------------------------|
|---------12-12-----------------|
|---------------14-14-----------|
|---------------------15--------|
|-------------------------------|

|---------------------------------17-17-13-13----------------13h17p13----|
|--------------------18-18-15-15--------------------------15----------15-|
|------17-17-------------------------------------------14----------------|
|-------------15-15---------------------------------15-------------------|
|--13--------------------------------------------17----------------------|
|------------------------------------------------------------------------|

|--------13h17--15--13-----------------------|
|-----15----------------17--15------\---\----|
|--14----------------------------------------|
|--------------------------------------------|
|--------------------------------------------|
|--------------------------------------------|
comments
We did not receive enough feedback on this tab! Please rate:
print report bad tab
1 2 3 4 5
I want to post or [tab]
guest
You may want to rate the tab now too:
select rating
Please do not post tabs as comments. Select "correction" instead!