Oops, an error
Loading. Please wait.

Machine solo tab

version 1
version 1

Solo

Whole song

Interactive

24,924 views 48 this week
8 commentsread comments
1 2 3 4 5
x 6
add to favorites
×
Save as Personal and add changes to this tab that will be seen only by you. Learn more ›
×
You can save this tab as Personal to edit and correct it or add notes. All changes will be seen only by you. Learn more »
launch autoscroll
font size
0
reset
how to read this tab
guitar tuner
edit
Autoscroll
slow
fast
+/-
esc
set tempo
stop
Born of Osiris - Machine
Drop C tuning
Tabbed by Lorcan Ward

Check out my Cover video:
http://www.youtube.com/watch?v=9nMGNUdmfPI

 Lead Guitar:
D|--------------13h17p13----------13h17-t18p17p13-----|
A|-----------15----------15----15-----------------15--|
F|--------14----------------14------------------------|
C|-----15---------------------------------------------|
G|--17------------------------------------------------|
C|----------------------------------------------------|

D|--------13-17-15-13--------------------------------|
A|-----15-------------17-15-14-----------------------|
F|--14-------------------------15-14-----------------|
C|-----------------------------------17-15-14--------| X 8
G|--------------------------------------------17-16--|
C|---------------------------------------------------|
 
 
 Harmony Guitar:
D|--------------17h20p17----------17h20-t22p20p17-----|
A|-----------18----------18----18-----------------18--|
F|--------17----------------17------------------------|
C|-----19---------------------------------------------|
G|--20------------------------------------------------|
C|----------------------------------------------------|
 

D|--------17-20-18-17--------------------------------|
A|-----18-------------20-18-17-----------------------|
F|--17-------------------------19-18-----------------|
C|-----------------------------------20-19-17--------| X 4
G|--------------------------------------------20-19--|
C|---------------------------------------------------|



************************************

| h  Hammer-on
| p  Pull-off
| t  Tapping

************************************
Suggest correction
Creating personal tab
Creating personal tab
You can edit any tab online and save it as your Personal.

You can edit, replace or remove any tab part or add personal notes – all changes will be seen only by you.

Personal tabs can be accessed anytime from any device, even offline.
Learn more »
comments
print report bad tab
8 comments total. Showing first comments.
0 reply
J.Millzzzz 2,488 Aug 01, 2013 04:41 PM

umm. the harmony guitar is the same as the other guitar part...

0 reply
Zao_89 894 Aug 02, 2013 09:55 AM

Drop C also doesn't have 7 strings.

0 reply
drawnacrol 1,479 Aug 03, 2013 07:54 AM

Woops, uploaded the wrong tab, fixing it now

guest
You may want to rate the tab now too:
select rating
Wanna post a correction for this tab? Suggest correction