Oops, an error
Loading. Please wait.

Hummingbird tab

version 2
version 2

Whole song

Interactive

255 views 3 this week
no commentswrite comment
1 2 3 4 5
3 more votes to show rating
add to favorites
×
Save as Personal and add changes to this tab that will be seen only by you. Learn more ›
×
You can save this tab as Personal to edit and correct it or add notes. All changes will be seen only by you. Learn more »
launch autoscroll
font size
0
reset
how to read this tab
guitar tuner
edit
Autoscroll
slow
fast
+/-
esc
set tempo
stop
The whole song I think is fairly simple just listen to where you think the chords 
changes are and you'll hear it pretty clearly. The tabbed parts I did by ear and think they 
are accurate. Enjoy.
() = optional lead in note
* = Bend

Intro/Recurring Riff:
------------------------------2-3--------------|
--------------------------3-5------------------|
--------------------2-4-5----------------------|
--------------2-4-5----------------------------|
--------2-3-5----------------------------------|
0-2-3-5----------------------------------------|

Pre-Chorus piece/Recurring Riff:
------------------------------------------------------------|
------------------------------------------------------------|
------------------------------------------------------------|
-----------5-4-2-2-2-2-2-0-----0-0-0-0-2--------------------|
---------------------------2-3-----------2-2-2-2-3-2-0------|
-(0)-3-3------------------------------------------------3---|

Bridge:
----------------------------------------------|
----------------------------------------------|
----------------------------------------------|
----------------------------------------------|
--2-3-2-55---2--3--2--00---2-3-2-55-----------|
-3-3-3-3----3--3--3--3----3-3-3-3-------------|

Solo:
-15---------            -15---------------------|
---15-------            ----15----16*-----------|
------16---- and then   ------------------------|
------------            --------17----17--------|
------------            ------------------------|
------------            ------------------------|




  G
The grass & the daisies
        Em                        B
Think a lot more of the days than you
         C
& You're you

The walls of the maze
Know the will more than the way than you
& You're just you

The buttons on my phone
Know I hate to be alone
When I dial, I'm in denial

But now at least I know
Where it is I have to go
I need supplies before I arrive

"You're running down my thigh," she said
"He's such a wonderful guy," she said

"There's pride in wanting to die,
I think I'll give it a try," she said

"I can't make it on my own
& It's so hard to be alone
When I die
I'll be alright,"

& Now at least she knows
Where it is she has to go
She'll need supplies before she arrives

We're not gonna die like this


Hum-Ming-Bird

            
            
Suggest correction
Creating personal tab
Creating personal tab
You can edit any tab online and save it as your Personal.

You can edit, replace or remove any tab part or add personal notes – all changes will be seen only by you.

Personal tabs can be accessed anytime from any device, even offline.
Learn more »
Give kudos to tab author, rate the tab!
1 2 3 4 5
comments
print report bad tab
guest
Wanna post a correction for this tab? Suggest correction