Oops, an error
Loading. Please wait.

Pool Party Fun chords

5,114 views 9 this week
6 commentsread comments
1 2 3 4 5
x 8
add to favorites
×
Save as Personal and add changes to this tab that will be seen only by you. Learn more ›
×
You can save this tab as Personal to edit and correct it or add notes. All changes will be seen only by you. Learn more »
launch autoscroll
font size
0
reset
transpose
0
reset
simplify chords
display chords
guitar tuner
edit
Autoscroll
slow
fast
+/-
esc
set tempo
stop
Author
Difficulty
Strumming
There is no strumming pattern for this song yet. and get +5 IQ
Skeleton Me / Born Ruffians... Pool Party Fun
Tabbed by... spence0nasty

Tuning - Standard
Capo - 5th Fret
All of the following chords are relative to the capo.
For the F6add14 use your thumb to press down the low E string.

Chords:

  D7    G7  F6add14  C   Cadd9   Am     
|--2--|--1--|--0--|--0--|--0--|--0--|
|--1--|--0--|--1--|--1--|--3--|--1--|
|--2--|--0--|--2--|--0--|--0--|--2--|
|--0--|--0--|--0--|--2--|--2--|--2--|
|--x--|--2--|--x--|--3--|--3--|--0--|
|--x--|--3--|--1--|--x--|--x--|--x--|

  G/B    F     G     E    E7    C/G
|--x--|--1--|--3--|--0--|--0--|--0--|
|--0--|--1--|--0--|--0--|--3--|--1--|
|--0--|--2--|--0--|--1--|--1--|--x--|
|--0--|--3--|--0--|--2--|--2--|--2--|
|--2--|--3--|--2--|--2--|--2--|--x--|
|--x--|--1--|--3--|--0--|--0--|--3--|

...

D7 G7 C F6add14
D7 G7 C F6add14
there's so many people out there

C Cadd9 Am C/G F
so how did I get stuck here, with you

C G/B C F6add14
where's my sword to slay, where are my rules to obey

C Cadd9 Am C/G F
show me

C G F
her hair was styled with fear, her teeth were like veneer

D7 G7 C F6add14
and she really has no reason, no reason at all

C Cadd9 Am C/G F
to be lonely

C G/B F
I don't wanna play anymore, thank you

C G
not here, not now, maybe never again

D7 G7 C F6add14
D7 G7 C F6add14                    
and it's hard when it hurts and you have to say it doesn't...
you don't have to say it doesn't

C Cadd9 Am C/G F
and it sucks when you find someone but they don't find you

E E7 Am C/G F
yeah it sucks when you find someone but they don't find you

D7 G7 C F6add14
why won't this feeling go away 

D7 G7 C F6add14
hey hey oooooo...

C Cadd9 Am
(whistling)

C Cadd9 Am C/G F
Am

~ end ~

            
            
Suggest correction
Creating personal tab
Creating personal tab
You can edit any tab online and save it as your Personal.

You can edit, replace or remove any tab part or add personal notes – all changes will be seen only by you.

Personal tabs can be accessed anytime from any device, even offline.
Learn more »
comments
print report bad tab
6 comments total. Showing first comments.
0 reply
onthepull 596 Feb 17, 2012 08:13 AM, edited on March 5 2016, 11:42 am

e---------------------------------------------------------------------
b--0---------------------3-----------------------1------------3---1
g--0---------------------0-----------------------2------------0---2
d--2---------------------2-----------------------2------------0---3
a--2---------------------2-----------------------0------------2---3
e--0---------------------0-------------------------------------3---1

it sucks when you find someone and they don't find you

0 reply
PeteTLT 52 Jul 22, 2012 12:47 AM

I think there's only 2 things wrong with this tab:
1:
C Cadd9 Am C/G F
where's my sword to slay, where are my rules to obey
2: I think it ends on F6add14

Other than that thanks for the post! Been waiting for this for a while.

0 reply
Austin Culler 10 Mar 15, 2013 11:34 PM

The F6add14 is actually 3x0210

guest
You may want to rate the tab now too:
select rating
Wanna post a correction for this tab? Suggest correction