Oops, an error
Loading. Please wait.

Dont Look Back bass

version 1
version 1

Whole song

Interactive

by Boston
7,081 views 6 this week
2 commentsread comments
1 2 3 4 5
x 6
add to favorites
×
Save as Personal and add changes to this tab that will be seen only by you. Learn more ›
×
You can save this tab as Personal to edit and correct it or add notes. All changes will be seen only by you. Learn more »
launch autoscroll
font size
0
reset
guitar tuner
edit
Autoscroll
slow
fast
+/-
esc
set tempo
stop
Author
Difficulty
Boston - 'Don't Look Back' for Bass
From 'Don't Look Back' Album
Standard Bass Tuning
tabbed by jjhand

Hope you like this tab, its got a good rhythm. Please rate and comment


Intro (0:10)
G|-----------------|-----------------|-----------------|-------4---------------|
D|-----7-------7---|-----7-------7---|-----7-------7---|----6-----4----6-7p6p4-|
A|-----------------|-----------------|-----------------|-7---------------------|
E|-5-------5-------|-5-------5-------|-5-------5-------|-----------------------|



Verse Riff 1
G|-----------------|-----------------|-----------------|-----------------------|
D|-----7-------7---|-----7-------7---|-----7-------7---|-----7-----4-----4--6--|
A|-----------------|-----------------|-----------------|---------7-------------|
E|-5-------5-------|-5-------5-------|-5-------5-------|-5---------------------|

G|-----------------|-----------------|-----------------|----1--4---------------|
D|-----7-------7---|-----7-------7---|-----7-------7---|-2---------------------|
A|-----------------|-----------------|-----------------|-----------------0--4--|
E|-5-------5-------|-5-------5-------|-5-------5-------|---------2----4--------|

G|-------------------|------------------|------------------|-----------------|
D|-----------5-------|--------2-0-------|-------5------5---|-5-----5-4-------|
A|-------5---------2-|-3-----------3p2--|------------5-----|-----------5---2-|
E|-3-------3---------|------------------|-3--------------3-|-----------------|

G|----------------|------------------|------------------|------------------|
D|----------------|---------------2--|------------------|-------------4----|
A|-3---------3-2--|-0------3--2------|-5------5-5-----5-|-5-5-5-5-5-5------|
E|----------------|------------------|------------------|------------------|



Prechorus
G|------------------|-----------------|------------------|------------------|
D|--------2-2-------|-----2-2---------|---------2-2-2----|-(2)----2---------|
A|------------------|-----------------|------------------|------------------|
E|-0----------------|-0---------------|-0----------------|------------------|




Chorus (^ is below a grace note, which is played swiftly)
G|-----------------|------------------|----------------|-----------------|
D|-----------------|--------5---------|----------------|-------5---5-4h5-|
A|-0---------------|-------------2--3-|-5-----/5--3--2-|-----------------|
E|--------0-1----3-|-3----------------|----------------|-3---------------|

G|-----------------|------------------|----------------|-----------------|
D|-7-------------5-|-(5)------5--3--2-|----------------|-------5---5-4h5-|
A|--------7-8------|------------------|-5------5--3--2-|----------5------|
E|-----------------|------3-----------|----------------|-3--------^------|

G|-----------|----------|--------|--------|-14-----------|-13-14----14----------|
D|-7---------|-(7)------|--------|--------|--------14-16-|-------------14-------|
A|-----------|----------|--------|--------|--------------|----------------16-14-|
E|-----------|----------|-rest---|-rest---|--------------|----------------------|



Verse 2
G|---------------|---------------|---------------|-----------------------|
D|-----7-------7-|-----7-------7-|-----7-------7-|-----7-----7------7----|
A|---------------|---------------|---------------|---------7--7/9----9p7-|
E|-5-------5-----|-5-------5-----|-5-------5-----|-5---------------------|

G|-----------------|-----------------|-----------------|----1--4---------------|
D|-----7-------7---|-----7-------7---|-----7-------7---|-2---------------------|
A|-----------------|-----------------|-----------------|-----------------0--4--|
E|-5-------5-------|-5-------5-------|-5-------5-------|---------2----4--------|

G|-------------------|------------------|------------------|-----------------|
D|-----------5-------|-5------5-4-------|------------------|-------2-0---4-5-|
A|-------5---------2-|-------------5----|-------5--------2-|-3---------------|
E|-3-------3---------|----------------2-|-3-------3--------|-----------------|

G|-5--------------|-----------------|------------------|------------------|
D|----------------|-----------------|------------------|-----------4-5-7--|
A|------3----0-2--|-0---------------|-5------5-5-----5-|-5-5-5-5-5--------|
E|----------------|--------3--2--0--|------------------|------------------|



Play Prechorus again

Chorus 2 (2:04)
G|-----------------|------------------|----------------|-----------------|
D|-----------------|--------5---------|----------------|-------5---------|
A|-0---------------|-------------2--3-|-5----5/7-5-3-2-|----5------0-3p2-|
E|--------0-1----3-|-3----------------|----------------|-3---------------|

G|-----------------|------------------|----------------|-----------------|
D|-----------------|------------------|----------------|-------5---------|
A|-0---------------|-------------2--3-|-5----5/7-5---0-|-----------5-3---|
E|--------0-1----3-|-3----------------|----------------|-3-------------5-|


Interlude
G|-----------|-----------|-----------|--------------|-14---------|-(14)------|
D|-----------|-----------|-7---------|-(7)----13/14-|------------|-----------|
A|-0---------|-(0)-----7-|-----------|--------------|------------|-----------|
E|-----------|-----------|-----------|--------------|------------|-----------|

G|-(14)-------|-(14)--------|----------|-----------|
D|------------|-------------|----------|-----------|
A|------------|-------------|----------|-----------| fades out
E|------------|-----------3-|-5--------|-(5)-------|



(2:59) End of Interlude
G|-------------|---------------|---------------|---------------|---------------|
D|-------------|---------------|---------------|---------------|---------------|
A|-----0--0----|---------------|-0----0-0------|---------------|-0----0-0------|
E|-----------0-|-1----1-3----3-|-------------0-|-1----1-3----3-|-------------0-|

G|---------------|---------------|---------------|---------------|---------------|
D|---------------|---------------|---------------|---------------|---------------|
A|---------------|-0----0-0------|---------------|-0----0-0----0-|-0----0-0-2-2--|
E|-1----1-3----3-|-------------0-|-1----1-3----3-|---------------|---------------|



Guitar Solo (3:17)
G|---------------|----------------|----------------|------------|---------------|
D|-2-------------|----------------|----------5h7-5-|------------|---------------|
A|------2-3----3-|-5------5---3p2-|-0-----7-----7--|-5------3\2-|------2-3----3-|
E|---------------|----------------|----------------|------------|-0-------------|

G|----------------|-----------------|-----------------|---------------|---------------|
D|----------------|-------7---7-6---|-----------------|---------------|---------------|
A|-5------5---3p2-|-0--------7----3-|-5-5-5-5-5-2-----|------2-3----3-|-5-----5--3-2--|
E|----------------|-----------------|-------------3-2-|-0-------------|-------------3-|

G|----------------|----------------|---------------|----------------|---------------|
D|------------5---|----------------|---------------|----------------|-----------5---|
A|-0----2--3----3-|-5----5-5---3-2-|------2-3----3-|-5-----5---3p2--|-0----2--3---3-|
E|----------------|----------------|-0--0----------|--------------3-|---------------|

G|----------------|----------------|---------------|-----------------|
D|----------7-5-4-|----------------|---------------|-----------------|
A|-5-----5--------|-7----------7-7-|---------------|-7-7-7-7-7-7-7-7-|
E|----------------|----------------|-0-0-0-3/4-5-7-|-----------------|

|----------------------------6-77-9-|
|---------------5/6-6-77-9-9--------|
|-7---7---7---7---------------------|
|-----------------------------------|



Verse 3
G|---------------|---------------|---------------|----------------------|
D|-----7-------7-|-----7-------7-|-----7-------7-|-----7-----7----------|
A|---------------|---------------|---------------|---------7--7/9--9-11-|
E|-5-------5-----|-5-------5-----|-5-------5-----|-5--------------------|

G|-----------------|-----------------|-----------------|----1--4---------------|
D|-----7-------7---|-----7-------7---|-----7-------7---|-2---------------------|
A|-----------------|-----------------|-----------------|-----------------0--4--|
E|-5-------5-------|-5-------5-------|-5-------5-------|---------2----4--------|

G|-------------------|------------------|------------------|-----------------|
D|-----------5-------|-5------5-4-------|-----------5------|-------2-0---4-5-|
A|-----------------2-|-------------5----|-------5--------2-|-3---------------|
E|-3-----3-3---------|----------------2-|-3-------3--------|-----------------|

G|-5-------------|-----------------|------------------|------------------|
D|---------------|-----------------|------------------|-------------4----|
A|------3---5-2--|-0---------------|-5-----5-5------5-|-5-5-5-5-5-5------|
E|---------------|--------3--2--0--|------------------|------------------|


Play Prechorus Again

Final Chorus
G|-----------------|------------------|--------------2-|---------------|
D|-----------------|--------5------5--|-------2-3------|-5-------------|
A|-0---------------|-------------5----|-5--------------|-----------3\2-|
E|--------0-1----1-|-3----------------|----------------|---3-----------|

G|----------------|------------------|----------------|-----------4-5-7-|
D|-------0-2------|-5------5-----332-|----------------|--------5--------|
A|-0--3-----------|------------5-----|-5------3-5-3-2-|-----------------|
E|----------------|-----3------------|----------------|-3---------------|

G|----------------|----------------|---------------|----------------|---------------|
D|----------------|--5-------------|---------------|--555-----------|---------------|
A|-0--------------|----------------|-0-------------|----------------|-0-------------|
E|-------0-1----3-|-----3--3-------|------0-1----3-|-------3--3-----|------0-1----3-|

G|----------------|----------------|---------------|
D|--555-----------|----------------|---------------|
A|----------------|-0--------------|-(0)-----------| bass stops
E|-------3-3------|----------------|---------------|



Ending (Verse Riff again)
G|---------------|----------------|---------------|-----------------------|
D|-----7-------7-|-----7------7---|-----7-------7-|-----7-----7----44--6--|
A|---------------|--------------7-|---------------|---------7---7---------|
E|-5-------5-----|-5-------5------|-5-------5-----|-5---------------------|

G|---------------|---------------|---------------|-------------------|
D|-----7-------7-|-----7-------7-|-----7-------7-|-7-6-4-------------|
A|---------------|---------------|---------------|-------7----4-5-7--|
E|-5-------5-----|-5-------5-----|-5-------5-----|-------------------|

G|---------------|---------------|---------------|---------7-6-------|
D|-----7-------7-|-----7---7---7-|-----7-------7-|-----7-------9-----|
A|---------------|---------------|---------------|---------------9\--|
E|-5-------5-----|-5--------5----|-5-------5-----|-5-----------------|

G|---------------|-----------------|---------------|---------14--13-----|---------|
D|-----7-------7-|-----7-----------|-----7-------7-|-12-11---------14\--|---------|
A|---------------|-----------4-5-7-|---------------|------12------------|-0-------|
E|-5-------5-----|-5-------7-------|-5-------5-----|--------------------|---------|


Key:
| /  slide up
| \  slide down
| h  hammer-on
| p  pull-off
|()  hold previous note into next bar

            
            
Suggest correction
Creating personal tab
Creating personal tab
You can edit any tab online and save it as your Personal.

You can edit, replace or remove any tab part or add personal notes – all changes will be seen only by you.

Personal tabs can be accessed anytime from any device, even offline.
Learn more »
comments
print report bad tab
2 comments total.
0 reply
Will34967 10 Mar 02, 2016 04:29 PM

I HATE THIS FORMATTING SO MUCH. IT IS WAY TOO LONG FOR REPETITIVENESS

0 reply
jjhand 18,536 Mar 03, 2016 04:00 AM

WHY ARE YOU WRITING IN CAPS? THE FORMATTING IS JUST FINE, NOT SURE WHY YOU DON'T UNDERSTAND THAT BASS PLAYERS WILL PLAY THE SAME NOTES OF A RIFF BUT DON'T ALWAYS PLAY IT WITH THE SAME RHYTHM. I BROKE UP SECTIONS OF THE SONG AND TRIED TO SHOW WHAT THE BASS PLAYER DOES THROUGHOUT IN CASE SOMEBODY WAS TO PLAY ALONG. DON'T GIVE A TAB ONE STAR RATINGS FOR YOUR OWN STUPIDITY WILL, OTHER PEOPLE HAVE LIKED THIS ONE JUST FINE.

guest
You may want to rate the tab now too:
select rating
Wanna post a correction for this tab? Suggest correction