Oops, an error
Loading. Please wait.

Dont Look Back tab

version 4
version 4

Whole song

Interactive

by Boston
67 views 1 this week
no commentswrite comment
1 2 3 4 5
2 more votes to show rating
add to favorites
×
Save as Personal and add changes to this tab that will be seen only by you. Learn more ›
×
You can save this tab as Personal to edit and correct it or add notes. All changes will be seen only by you. Learn more »
launch autoscroll
font size
0
reset
how to read this tab
guitar tuner
edit
Autoscroll
slow
fast
+/-
esc
set tempo
stop
Author
Difficulty
About this tab version
Goes in complete order so you can turn on scroll and play along, taken from sheet music of the actual song and converted to tab. Was this info helpful? Yes No
Song: Don't Look Back
Artist: Boston
Tuning: E standard


[Intro]
                       
e|----------------------------------------|
B|-14h15--15--14--14-----7--7-9-9-10-9----|
G|-14-----14--14--14-----7--7-9-9-9--9----|
D|-14h16--16--14--14-----7--7-9-9-11-9----|
A|-0------0---0---0------0--0-0-0-0--0-0--|
E|----------------------------------------|

e|--------------------|
B|-14h15--15--14--14--|
G|-14-----14--14--14--|
D|-14h16--16--14--14--|
A|-0------0---0---0---|
E|--------------------|    

e|----------------------------------------|
B|----------------------17b19-17~~~~~~----|
G|----------------------------------------|
D|-16b18-16b18-16b18-14-------------------|
A|----------------------------------------|
E|----------------------------------------| 

[Fast Lick]

e|---------------------------------------------------------------------|
B|-14-15p14-14-17p14-14-15p14-14-17p14-14-15p14----14------------------|
G|----------------------------------------------16----16-16~~~~~~~~----|
D|---------------------------------------------------------------------|
A|---------------------------------------------------------------------|
E|---------------------------------------------------------------------|

e|---------------------------------|
B|-12h14-12------------------------|
G|----------14-11-9----------------|
D|------------------11-9-7~~~~~~~--|
A|-----------------------7~~~~~~~--|
E|-----------------------5~~~~~~~--|   

[Return to chords]

e|----------------------------------------|
B|-14h15--15--14--14-----7--7-9-9-10-9----|
G|-14-----14--14--14-----7--7-9-9-9--9----|
D|-14h16--16--14--14-----7--7-9-9-11-9----|
A|-0------0---0---0------0--0-0-0-0--0-0--|
E|----------------------------------------|

e|--------------------|
B|-14h15--15--14--14--|
G|-14-----14--14--14--|
D|-14h16--16--14--14--|
A|-0------0---0---0---|
E|--------------------| 

[Picking sequence]

   E    F#m
e|-0-0---2--2-2-2----------------------------------------------------------------------3-----------0--|
B|-0-0---2--2-2-2--------3-----0---1---1---3---3-----3---3-----0---1---1---3---3-1---1---1---0--------|
G|-1-1---2--2-2-2------0---0-----0---0---0---2---0-----0---0-----0-------0---2-----0-------0---0-2----|
D|-2-2---4--4-4-4----0-------0-------------------------------0-------2--------------------------------|
A|-2-2---4--4-4-4------------------3-------------------------------3----------------------------------|
E|-0-0-0-2--2-2-2--3-------------------------------3--------------------------------------------------|
                                            E
e|-----------2-------2---------------3-2---------|
B|-1---1-0-------3-----3---3-3---3-------3--9-9--|
G|---2-----0---2---2-----2-----2---2--------9-9--|
D|-----------0------------------------------9-9--|
A|------------------------------------------7-7--|
E|-----------------------------------------------|

[Pre chorus]
                        E
e|-----------------0--------------------------9/12--|
B|-----------5-7b9---0--9--9b10-9b10-9b10-9---------|
G|----------------------9-------------------9-------|
D|---7b8-7b8------------9---------------------------|
A|----------------------7---------------------------|
E|-0------------------------------------------------|

[Chorus]

e|--------------------------------------------------------------------------------------|
B|--------------------------------------------------------------------------------------|
G|-2~~~-4-5-7-4-0-4b5-2-0---4/9-7-5-4h5p4-----------0-4b5-2~~~-4-5-7-4-0-4b5-2h4p2-0----|
D|------------------------3---------------5------------------------------------------3--|
A|------------------------------------------5--5~~~-------------------------------------|
E|--------------------------------------------------------------------------------------|

e|--------------------------------------------|
B|--------------------------------------------|
G|-4/9-7~-5-4h5p4---4~~-0-4b5-2~~~~~~~~~~~~~--|
D|----------------7---------------------------|
A|--------------------------------------------|
E|--------------------------------------------|

[Return to chords]

e|----------------------------------------|
B|-14h15--15--14--14-----7--7-9-9-10-9----|
G|-14-----14--14--14-----7--7-9-9-9--9----|
D|-14h16--16--14--14-----7--7-9-9-11-9----|
A|-0------0---0---0------0--0-0-0-0--0-0--|
E|----------------------------------------|
                                               
e|----------------------------------------|
B|-14h15--15--14--14-----7--7-7-7-7-9-9---|
G|-14-----14--14--14-----7--7-7-7-7-9-9---|
D|-14h16--16--14--14-----7--7-7-7-7-9-9---|
A|-0------0---0---0------0--0-0-0-0-0-0-0-|
E|----------------------------------------|

e|----------------------------------------|
B|-14h15--15--14--14-----7--7-9-9-10-9----|
G|-14-----14--14--14-----7--7-9-9-9--9----|
D|-14h16--16--14--14-----7--7-9-9-11-9----|
A|-0------0---0---0------0--0-0-0-0--0-0--|
E|----------------------------------------|
                                               
e|----------------------------------------|
B|-14h15--15--14--14-----7--7-7-7-7-9-9---|
G|-14-----14--14--14-----7--7-7-7-7-9-9---|
D|-14h16--16--14--14-----7--7-7-7-7-9-9---|
A|-0------0---0---0------0--0-0-0-0-0-0-0-|
E|----------------------------------------|

e|----------------------------------------|
B|-14h15--15--14--14-----7--7-7-7-7-9-9---|
G|-14-----14--14--14-----7--7-7-7-7-9-9---|
D|-14h16--16--14--14-----7--7-7-7-7-9-9---|
A|-0------0---0---0------0--0-0-0-0-0-0-0-|
E|----------------------------------------|

e|--------------------|
B|-14h15--15--14--14--|
G|-14-----14--14--14--|
D|-14h16--16--14--14--|
A|-0------0---0---0---|
E|--------------------|

[Return to Picking Sequence]

   E    F#m
e|-0-0---2--2-2-2----------------------------------------------------------------------3-----------0--|
B|-0-0---2--2-2-2--------3-----0---1---1---3---3-----3---3-----0---1---1---3---3-1---1---1---0--------|
G|-1-1---2--2-2-2------0---0-----0---0---0---2---0-----0---0-----0-------0---2-----0-------0---0-2----|
D|-2-2---4--4-4-4----0-------0-------------------------------0-------2--------------------------------|
A|-2-2---4--4-4-4------------------3-------------------------------3----------------------------------|
E|-0-0-0-2--2-2-2--3-------------------------------3--------------------------------------------------|
                                            E
e|-----------2-------2---------------3-2---------|
B|-1---1-0-------3-----3---3-3---3-------3--9-9--|
G|---2-----0---2---2-----2-----2---2--------9-9--|
D|-----------0------------------------------9-9--|
A|------------------------------------------7-7--|
E|-----------------------------------------------|

[Mini Solo]

e|-----------------------7*--------------------|
B|-------9\7/9--------------9\7-9\7-9\7-7-7b9--|
G|---6b7-------9~-9-9-9~-----------------------|
D|---------------------------------------------|
A|---------------------------------------------|
E|-0-------------------------------------------|

[Chorus]

e|--------------------------------------------------------------------------------------|
B|--------------------------------------------------------------------------------------|
G|-2~~~-4-5-7-4-0-4b5-2-0---4/9-7-5-4h5p4-----------0-4b5-2~~~-4-5-7-4-0-4b5-2h4p2-0----|
D|------------------------3---------------5------------------------------------------3--|
A|------------------------------------------5--5~~~-------------------------------------|
E|--------------------------------------------------------------------------------------|

e|--------------------------------------------|
B|-------------------12b13-10h12p10----10~~~~-|
G|-2/7-9-10-7h9p7-12----------------12--------|
D|--------------------------------------------|
A|--------------------------------------------|
E|--------------------------------------------|

[Short picking section]

e|--14~~-14-------12----------------------------------12~-10-12-------|
B|--12~~----12-------12----15-------13----10--------------------10~~--|
B|--12~~-------12-------12----12-10----10----10----10-----------------|
D|--12~~----------------------------------------10--------------------|
A|--------------------------------------------------------------------|
E|--------------------------------------------------------------------|



e|-----------------------------------|
B|-14h15-15-14--14-14-10-10-12-13-12-|
G|-14----14-14--14-14-10-10-12-12-12-|
D|-14h16-16-14--14-14-10-10-12-12-12-|
A|-----------------------------------|
E|-----------------------------------|

e|-----------------------------|
B|-14h15-15-14--14-14-10-10-12-|
G|-14----14-14--14-14-10-10-12-|
D|-14h16-16-14--14-14-10-10-12-|
A|-----------------------------|
E|-----------------------------|

e|-----------------------------------|
B|-14h15-15-14--14-14-10-10-12-13-12-|
G|-14----14-14--14-14-10-10-12-12-12-|
D|-14h16-16-14--14-14-10-10-12-12-12-|
A|-----------------------------------|
E|-----------------------------------|

e|-------------------------------------------------------------------------|
B|-14h15-15-14--14-14-10-10-12-13-12-12\7-7-8-7-----10-10-10--10-10--10-10-|
G|-14----14-14--14-14-10-10-12-12-12-12\7-7-7---9-7-7--9--9---9--9---9--9--|
D|-14h16-16-14--14-14-10-10-12-12-12-12\7-7-7-------7--7--7---7--7---7--7--|
A|-------------------------------------------------------------------------|
E|-------------------------------------------------------------------------|

[Transition to solo]

e|--------------------------------------------------------------------------|
B|--------------------------------------------------------------------------|
B|--2-2~~-2-2~~-2-2~~-2-2~~-2-2~~-2-2~~-2-2~~-2-2~~-2-2~~-2-2~~-2-2~~-2-2~~-|
D|--------------------------------------------------------------------------|
A|--------------------------------------------------------------------------|
E|--------------------------------------------------------------------------|

e|------------------------------------|
B|------------------------------------|
G|-------------------2--2-2--2-2--2-2-|
D|---3-3-3-3-5-5-5-5-2--2-2--2-2--2-2-|
A|---3-3-3-3-5-5-5-5-0--0-0--0-0--0-0-|
E|-0-1-1-1-1-3-3-3-3------------------|

[solo]

e|-------------------------------------------------------------------------------------|
B|-------------------------------------------------------------------------------------|
G|-------------------------------------------------------------------------------------|
D|------2~-2-4-5-7-4~-0-4b5-2-0---4/9-7-5-4h5p4--------0-4b5-2-2-4-5b6-4-0-4b5-2h4p2-0-|
A|-4/14-------------------------3---------------5--------------------------------------|
E|------------------------------------------------5-5~---------------------------------|

e|-------------------------------------------------------------------------------------|
B|-------------------------------------------------------------------------------------|
G|-------------7h9p7----7-7~-7-11-11-9-9-11-12-14-11----11-9h11p9-------12/14-12-------|
D|------7-9-10-------10------------------------------12-----------12-10----------14----|
A|-3~/7--------------------------------------------------------------------------------|
E|-------------------------------------------------------------------------------------|

e|-------------------------------------------------------------------------------------|
B|-------------------------------------------------------------------------------------|
G|-11h12p11-------------11-9-11-12-14b16-11----11-9h11p9-------12/14-12----11h12p11----|
D|----------12-------12---------------------12-----------12-10----------14-------------|
A|-------------12-12-------------------------------------------------------------------|
E|-------------------------------------------------------------------------------------|   

e|-------------------------------------|
B|-------------------------------------|
G|----11-------------------------------|
D|-14---------5/7-5-4------------------|
A|--------------------7~~~~~~~~~~~~~~--|
E|-------12\7--------------------------|

[Return to chords]

e|----------------------------------------|
B|-14h15--15--14--14-----7--7-9-9-10-9----|
G|-14-----14--14--14-----7--7-9-9-9--9----|
D|-14h16--16--14--14-----7--7-9-9-11-9----|
A|-0------0---0---0------0--0-0-0-0--0-0--|
E|----------------------------------------|
                                               
e|----------------------------------------|
B|-14h15--15--14--14-----7--7-7-7-7-9-9---|
G|-14-----14--14--14-----7--7-7-7-7-9-9---|
D|-14h16--16--14--14-----7--7-7-7-7-9-9---|
A|-0------0---0---0------0--0-0-0-0-0-0-0-|
E|----------------------------------------|

e|----------------------------------------|
B|-14h15--15--14--14-----7--7-9-9-10-9----|
G|-14-----14--14--14-----7--7-9-9-9--9----|
D|-14h16--16--14--14-----7--7-9-9-11-9----|
A|-0------0---0---0------0--0-0-0-0--0-0--|
E|----------------------------------------|
                                               
e|-------------------|
B|-14h15--15--14--14-|
G|-14-----14--14--14-|
D|-14h16--16--14--14-|
A|-0------0---0---0--|
E|-------------------|

[Return to picking section]

   E    F#m
e|-0-0---2--2-2-2----------------------------------------------------------------------3-----------0--|
B|-0-0---2--2-2-2--------3-----0---1---1---3---3-----3---3-----0---1---1---3---3-1---1---1---0--------|
G|-1-1---2--2-2-2------0---0-----0---0---0---2---0-----0---0-----0-------0---2-----0-------0---0-2----|
D|-2-2---4--4-4-4----0-------0-------------------------------0-------2--------------------------------|
A|-2-2---4--4-4-4------------------3-------------------------------3----------------------------------|
E|-0-0-0-2--2-2-2--3-------------------------------3--------------------------------------------------|
                                            E
e|-----------2-------2---------------3-2---------|
B|-1---1-0-------3-----3---3-3---3-------3--9-9--|
G|---2-----0---2---2-----2-----2---2--------9-9--|
D|-----------0------------------------------9-9--|
A|------------------------------------------7-7--|
E|-----------------------------------------------|

[Pre Chorus]
             E E
e|-----------------------------------9/12-|
B|-----7/9---9-9---9b10-9b10-9b10---------|
G|-7-7-----9-9-9------------------9-------|
D|-----------9-9--------------------------|
A|-----------7-7--------------------------|
E|----------------------------------------| 

[Chorus]

e|--------------------------------------------------------------------------------------|
B|--------------------------------------------------------------------------------------|
G|-2~~~-4-5-7-4-0-4b5-2-0---4/9-7-5-4h5p4-----------0-4b5-2~~~-4-5-7-4-0-4b5-2h4p2-0----|
D|------------------------3---------------5------------------------------------------3--|
A|------------------------------------------5--5~~~-------------------------------------|
E|--------------------------------------------------------------------------------------|

[solo 2]

e|-----------------------------------------12-13------------------------------------12--|
B|----------8h10p8----8~-12-15b16-13-13-15-------15~~----15b16-13h15p13-12-13-13-15-----|
G|-2/7-9-10--------10---------------------------------12--------------------------------|
D|--------------------------------------------------------------------------------------|
A|--------------------------------------------------------------------------------------|
E|--------------------------------------------------------------------------------------|

e|-13-----------------------------------12-13-15-17b19----------------------------------|
B|----15~----15b16-13h15p13-12-13-13-15-------------------12b13-10h12p10----10~~~~~-----|
G|--------12-------------------------------------------12----------------12-------------|
D|--------------------------------------------------------------------------------------|
A|--------------------------------------------------------------------------------------|
E|--------------------------------------------------------------------------------------|

[Chords]

e|-----------------------------------------------------------------|
B|-14h15-15-14\0---7-7-9-10-9-----14h15-15-14\0--7-7-9-9-----------|
G|-14----14-14\0---7-7-9-9--9-----14----14-14\0--7-7-9-9-----------|
D|-14h16-16-14\0---7-7-9-11-9-----14h16-16-14\0--7-7-9-9-----------|
A|-0-----0--0------0-0-0-0--0-0---0-----0--0-----0-0-0-0-0---------|
E|-----------------------------------------------------------------|

[Ending solo]

e|-20~~~-20-21-22-22b23-17h19p17-19b21-19~~-------------|
B|------------------------------------------17-17b19-17-|
G|------------------------------------------------------|
D|------------------------------------------------------|
A|------------------------------------------------------|
E|------------------------------------------------------|

e|-14-17-14-17-14h17p14h17p14h17p14h17p14h17p14h17p14h17p----------------------------|
B|--------------------------------------------------------17b19-17-17p15p14----14----|
G|--------------------------------------------------------------------------16----16-|
D|-----------------------------------------------------------------------------------|
A|-----------------------------------------------------------------------------------|
E|-----------------------------------------------------------------------------------|

e|---------------------------------------------------------2-2-5-2-------------------|
B|-----------------------------------3b5-3b5-----------5b7---------5-2---------------|
G|-16b17-14~---------------------------------2-4b6~~-2-----------------4b6p2---------|
D|----------------------4/7-7------------------------------------------------4-2-----|
A|-----------4~~~-5p4-0-0---0-0-0~~~-------------------------------------------------|
E|-----------------------------------------------------------------------------------|

e|--------------------------------------------------|
B|--------------------------------------------------|
G|--------------7-6---8/14-13-14-14~~~~------2~~~---|
D|-----2-2--2-2-----7------------------------2~~~---|
A|-0-0-0-0--0-0------------------------------0~~~---|
E|---------------------------------------0----------|

*************************
h = hammer-on
p = pull-off
\ = slide down
/ = slide up
~ = vibrato
* = harmonic
*************************

            
            
Suggest correction
Creating personal tab
Creating personal tab
You can edit any tab online and save it as your Personal.

You can edit, replace or remove any tab part or add personal notes – all changes will be seen only by you.

Personal tabs can be accessed anytime from any device, even offline.
Learn more »
Give kudos to tab author, rate the tab!
1 2 3 4 5
comments
print report bad tab
guest
You may want to rate the tab now too:
select rating
Wanna post a correction for this tab? Suggest correction