Oops, an error
Loading. Please wait.

Foreplay Long Time bass

version 1
version 1

Whole song

Interactive

by Boston
31,823 views 24 this week
1 commentread comment
1 2 3 4 5
x 13
add to favorites
×
Save as Personal and add changes to this tab that will be seen only by you. Learn more ›
×
You can save this tab as Personal to edit and correct it or add notes. All changes will be seen only by you. Learn more »
launch autoscroll
font size
0
reset
guitar tuner
backing track
0:00
0:00
edit
Autoscroll
slow
fast
+/-
esc
set tempo
stop
Author
Difficulty
intermediate
Artist: Boston
Song: Foreplay Long time                                 

     W                   W                   W                 
G|-------------------|-------------------|-------------------|
D|-------------------|-------------------|-------------------|
A|-------------------|-------------------|-------------------|
E|-------------------|-------------------|-------------------|

    W                   W                   W                   W                 
G|-------------------|-------------------|-------------------|-------------------|
D|-------------------|-------------------|-------------------|-------------------|
A|-------------------|-------------------|-------------------|-------------------|
E|-------------------|-------------------|-------------------|-------------------|

    W                   Q    Q    H           Q    Q    H         
G|-------------------|---------------------|---------------------|
D|-------------------|---------------------|---------------------|
A|-------------------|--1------------------|--1------------------|
E|-------------------|---------------------|---------------------|

    W                   W                   W                   W                 
G|-------------------|-------------------|-------------------|-------------------|
D|-------------------|-------------------|-------------------|-------------------|
A|--1----------------|--L----------------|--L----------------|--L----------------|
E|-------------------|-------------------|-------------------|-------------------|

    W                   W                   W                 
G|-------------------|-------------------|-------------------|
D|-------------------|-------------------|-------------------|
A|-------------------|-------------------|-------------------|
E|-------------------|-------------------|-------------------|

    Q    H        Q        Q    Q    Q    Q       Q    Q    Q    Q     
G|----------------------|----------------------|----------------------|
D|----------------------|----------------------|----------------------|
A|----------------8\----|--1----3----4----3----|--1-------------------|
E|----------------------|----------------------|-------4----3----1----|

    Q    Q    Q    Q       Q    H.              Q    Q    Q    Q     
G|----------------------|--------------------|----------------------|
D|-----------------1----|--3-----------------|----------------------|
A|--3----4----1---------|--------------------|--1----3----4----3----|
E|----------------------|-------1------------|----------------------|

    Q    Q    Q    Q       Q    Q    Q    Q       W                 
G|----------------------|----------------------|-------------------|
D|----------------------|-----------------1----|--3----------------|
A|--1-------------------|--3----4----1---------|-------------------|
E|-------4----3----1----|----------------------|-------------------|

    Q    Q    Q    Q       Q    Q    Q    Q       Q    Q    Q    Q     
G|----------------------|----------------------|----------------------|
D|----------------------|----------------------|----------------------|
A|--1----3----1----3----|--4---------4---------|--4---------1---------|
E|----------------------|-------4---------4----|-------4---------1----|

    Q    Q    Q    Q       H.           Q       H.           Q     
G|----------------------|--------------------|--------------------|
D|------------1----3----|--------------------|--------------------|
A|-------4--------------|--1-----------------|--4-----------------|
E|--2-------------------|---------------4----|---------------4----|

    H.           Q       H.           Q       Q    Q    Q    Q     
G|--------------------|--------------------|----------------------|
D|--------------------|--------------------|----------------------|
A|--1-----------------|--4-----------------|--1---------4---------|
E|---------------4----|---------------4----|-------4---------4----|

    Q    Q    Q    Q       Q    Q    Q    Q       Q    Q    Q    Q     
G|----------------------|----------------------|----------------------|
D|----------------------|-----------------1----|--3----3----3----3----|
A|--1---------4---------|--1-------------------|----------------------|
E|-------4---------4----|-------4----2---------|----------------------|

    W                   W                   W                   W                 
G|-------------------|-------------------|-------------------|-------------------|
D|-------------------|-------------------|-------------------|-------------------|
A|--1----------------|--L----------------|--L----------------|--L----------------|
E|-------------------|-------------------|-------------------|-------------------|

    >    >    >    >       >    >    >    >       >    >    >    >     
    Q    Q    Q    Q       Q    Q    Q    Q       Q    Q    Q    Q     
G|----------------------|----------------------|----------------------|
D|----------------------|----------------------|-----------------1----|
A|--1----3----4----3----|--1-------------------|--3----4----1---------|
E|----------------------|-------4----3----1----|----------------------|

    >    >                                                           
    Q    H.              Q    Q    Q    Q       Q    Q    Q    Q     
G|--------------------|----------------------|----------------------|
D|--3-----------------|----------------------|----------------------|
A|--------------------|--1----3----4----3----|--1-------------------|
E|-------1------------|----------------------|-------4----3----1----|

    Q    Q    Q    Q       W                   Q    Q    Q    Q     
G|----------------------|-------------------|----------------------|
D|-----------------1----|--3----------------|----------------------|
A|--3----4----1---------|-------------------|--1----3----1----3----|
E|----------------------|-------------------|----------------------|

    Q    Q    Q    Q       Q    Q    Q    Q       Q    Q    Q    Q     
G|----------------------|----------------------|----------------------|
D|----------------------|----------------------|------------1----3----|
A|--4---------4---------|--4---------1---------|-------4--------------|
E|-------4---------4----|-------4---------1----|--2-------------------|

    H.           Q       H.           Q       H.           Q     
G|--------------------|--------------------|--------------------|
D|--------------------|--------------------|--------------------|
A|--1-----------------|--4-----------------|--1-----------------|
E|---------------4----|---------------4----|---------------4----|

    H.           Q       Q    Q    Q    Q       Q    Q    Q    Q     
G|--------------------|----------------------|----------------------|
D|--------------------|----------------------|----------------------|
A|--4-----------------|--1---------4---------|--1---------4---------|
E|---------------4----|-------4---------4----|-------4---------4----|

    Q    Q    Q    Q       Q    Q    Q    Q       W                 
G|----------------------|----------------------|-------------------|
D|-----------------1----|--3----3----3----3----|-------------------|
A|--1-------------------|----------------------|--1----------------|
E|-------4----2---------|----------------------|-------------------|

    W                   W                   W                   W                 
G|-------------------|-------------------|-------------------|-------------------|
D|-------------------|-------------------|-------------------|-------------------|
A|--L----------------|--3----------------|--L----------------|--3----------------|
E|-------------------|-------------------|-------------------|-------------------|

    W                   W                   W                   W                 
G|-------------------|-------------------|-------------------|-------------------|
D|-------------------|-------------------|-------------------|-------------------|
A|--L----------------|--3----------------|--L----------------|--3----------------|
E|-------------------|-------------------|-------------------|-------------------|

    W                   W                   W                   W                 
G|-------------------|-------------------|-------------------|-------------------|
D|-------------------|-------------------|-------------------|-------------------|
A|--L----------------|--3----------------|--L----------------|--L----------------|
E|-------------------|-------------------|-------------------|-------------------|

    W                                                           W                 
G|-------------------|-------------------|-------------------|-------------------|
D|-------------------|-------------------|-------------------|-------------------|
A|--L----------------|-------------------|-------------------|-------------------|
E|-------------------|-------------------|-------------------|-------------------|

    W                   W                   W                   W                 
G|-------------------|-------------------|-------------------|-------------------|
D|-------------------|-------------------|-------------------|-------------------|
A|-------------------|-------------------|-------------------|-------------------|
E|-------------------|-------------------|-------------------|-------------------|

    Q    Q    Q    Q       Q    Q    Q    Q       Q    Q    Q    Q     
G|----------------------|----------------------|----------------------|
D|----------------------|----------------------|----------------------|
A|--3----3----3----3----|--3----3----3----3----|--3----3----3----3----|
E|----------------------|----------------------|----------------------|

    Q    Q    E  E  E  E     Q    Q    E  E  E  E     E  E  E  E  E  E  E  E   
G|------------------------|------------------------|--------------------------|
D|------------------------|------------------------|--------------------------|
A|--3----3----------------|------------------------|--------------------------|
E|------------1--0--1--0--|--1----1----1--1--1--1--|--1-----1-----1--1--1--1--|

    Q    Q    E  E  E  E     E  E  E  E  E  E  E  E     Q    Q    E  E  E  E   
G|------------------------|--------------------------|------------------------|
D|------------------------|--------------------------|------------------------|
A|------------------------|--------------------------|------------------------|
E|--1----1----1--1--1--1--|--1-----1-----1--1--1--0--|--1----1----1--1--1--1--|

    E  E  E  E  E  E  E  E     Q    Q    E  E  E  E     E  E  E  E  E  E  E  E   
G|--------------------------|------------------------|--------------------------|
D|--------------------------|------------------------|--------------------------|
A|--------------------------|------------------------|--------------------------|
E|--1-----1-----1--1--1--1--|--1----1----1--1--1--1--|--1-----1-----1--1--1--1--|

    Q    Q    E  E  E  E     E  E  E  E  E  E  E  E     Q    Q    E  E  E  E   
G|------------------------|--------------------------|------------------------|
D|------------------------|--------------------------|------------------------|
A|------------------------|--------------------------|------------------------|
E|--1----1----1--1--1--1--|--1-----1-----1--1--1--0--|--1----1----1--1--1--1--|

    E  E  E  E  E  E  E  E     Q    Q    E  E  E  E     E  E  E  E  E  E  E  E   
G|--------------------------|------------------------|--------------------------|
D|--------------------------|------------------------|--------------------------|
A|--------------------------|------------------------|--------------------------|
E|--1-----1-----1--1--1--0--|--1----1----1--1--1--1--|--1-----1-----1--1--1--0--|

    Q    Q    E  E  E  E     E  E  E  E  Q    Q       Q    Q    E  E  E  E   
G|------------------------|------------------------|------------------------|
D|------------------------|-------------------1----|--3----3----3--3--3--3--|
A|------------------------|--------------1---------|------------------------|
E|--1----1----1--1--1--1--|--1-----1---------------|------------------------|

    E  E  E  E  E  E  E  E     Q    Q    E  E  E  E     E  E  E  E  E  E  E  E   
G|--------------------------|------------------------|--------------------------|
D|--3-----3-----3--3--3--2--|--3----3----3--3--3--3--|--3-----3-----------1-----|
A|--------------------------|------------------------|--------------1--1-----1--|
E|--------------------------|------------------------|--------------------------|

    Q    Q    Q    E  E     E  E  E  E  E  E  E  E   
G|-----------------------|--------------------------|
D|--3----3----3----3-----|--3-----3-----3--3--1-----|
A|-----------------------|-----------------------1--|
E|-----------------------|--------------------------|

    E  E  E  S S  S  S Q    E     E  Q    E  E  E  S  S E    
G|-------------3h-5p-3---------|----------------3-----------|
D|--------3--5-----------------|----------3--5-----5p-3-----|
A|--3--3---------------3----1--|--3--3------------------5\--|
E|-----------------------------|----------------------------|

    Q.     E  E  E  Q       Q    E  E  E  E  S S S S    E  E  Q    H         
G|-----------------------|---------------------------|----------------------|
D|-----------------------|-------------3--1--------1-|--3--3----------------|
A|--1------1--1--1--1----|--1----1--1----------1-3---|----------------------|
E|-----------------------|-------------------3-------|----------------------|

    W                   W                   W                   W                 
G|-------------------|-------------------|-------------------|-------------------|
D|-------------------|-------------------|-------------------|-------------------|
A|-------------------|-------------------|-------------------|-------------------|
E|-------------------|-------------------|-------------------|-------------------|

    W                   W                   W                   W                 
G|-------------------|-------------------|-------------------|-------------------|
D|-------------------|-------------------|-------------------|-------------------|
A|-------------------|-------------------|-------------------|-------------------|
E|-------------------|-------------------|-------------------|-------------------|

    W                   W                   W                 
G|-------------------|-------------------|-------------------|
D|-------------------|-------------------|-------------------|
A|-------------------|-------------------|-------------------|
E|-------------------|-------------------|-------------------|

    H        E  E  E  E     Q.     S  S Q.     E     E  E  Q    E  E  E  E   
G|-----------------------|--0---------------------|-------------------------|
D|--------------0--2--4--|------------------------|-------------------------|
A|-----------------------|---------3p-1-----------|-------------------------|
E|-----------------------|--------------3------1--|--L--3--L----3--3--3--3--|

    E  E  E  E  E  E  E  E     E  E  E  E  E  E  E  E     Q    Q    E  E  E  E   
G|--------------------------|--------------------------|------------------------|
D|--------------------------|-----------------------1--|--3----3----3--3--3--3--|
A|--1--1--1--1--1--1--1--1--|--1--1--1--1--1--1--3-----|------------------------|
E|--------------------------|--------------------------|------------------------|

    E  E  E  E  E  E  E  E     Q    Q    E  E  E  E     E  E  E  E  E  E  E  E   
G|--------------------------|------------------------|--------------------------|
D|--3-----3-----3--3--3--2--|--3----3----3--3--3--3--|--3-----3-----3--3--3--2--|
A|--------------------------|------------------------|--------------------------|
E|--------------------------|------------------------|--------------------------|

    Q    Q    E  E  E  E     E  E  E  E  E  E  E  E     Q    Q    E  E  E  E   
G|------------------------|--------------------------|------------------------|
D|--3----3----3--3--3--3--|--3-----3-----3--3--3--2--|--3----3----3--3--3--3--|
A|------------------------|--------------------------|------------------------|
E|------------------------|--------------------------|------------------------|

    E  E  E  E  E  E  E  E     Q    Q    E  E  E  E     E  E  E  E  E  E  E  E   
G|--------------------------|------------------------|--------------------------|
D|--3-----3-----3--3--3--2--|--3----3----3--3--3--3--|--3-----3-----3--3--3--2--|
A|--------------------------|------------------------|--------------------------|
E|--------------------------|------------------------|--------------------------|

    Q    Q    E  E  E  E     E  E  E  E  E  E  E  E     Q    Q    E  E  E  E   
G|------------------------|--------------------------|------------------------|
D|--3----3----3--3--3--3--|--3-----3-----3--3--3--2--|--3----3----3--3--3--3--|
A|------------------------|--------------------------|------------------------|
E|------------------------|--------------------------|------------------------|

    E  E  E  E  E  E  E  E     Q    Q    E  E  E  E   
G|--------------------------|------------------------|
D|--3-----3-----3--3--3--2--|--3----3----3--3--3--3--|
A|--------------------------|------------------------|
E|--------------------------|------------------------|

    E  E  E  E  E  S S E  S S    Q    Q    E  E  E  E   
G|----------------------------|------------------------|
D|--3-----3------------1--1---|--3----3----3--3--3--3--|
A|--------------1--1-3------3-|------------------------|
E|----------------------------|------------------------|

    E  E  E  E  E  E  E  E     Q    Q    E  E  E  E   
G|--------------------------|------------------------|
D|--3-----3-----3--3--3--2--|--3----3----3--3--3--3--|
A|--------------------------|------------------------|
E|--------------------------|------------------------|

    E  E  E  E  E  S S E  S S    Q      Q    Q      Q     
G|----------------------------|-------/10---------/10----|
D|--3-----3------------1--1---|--3-----------3-----------|
A|--------------1--1-3------3-|--------------------------|
E|----------------------------|--------------------------|

    Q    E  E  S  S E  S  S E     E  E  E  E  S S  E  S  S E   
G|-----------------------------|----------------3h-5--5p-3----|
D|--3----3--1--3p-1------------|-----------3--5------------5--|
A|------------------3--3p-1-1--|--3--3--3---------------------|
E|-----------------------------|------------------------------|

    E  Q    E  E  E  S S E      E  E  E  E  E  E  E  E   
G|--5------------------------|--------------------------|
D|-------------3--5--5-3-----|--------------------------|
A|-----3----5------------5\--|--1--1--1--1--1--1--1--1--|
E|---------------------------|--------------------------|

    E  E  E  E  E  E  S S S S    E  E  Q    H           W                 
G|----------------------------|----------------------|-------------------|
D|--------------------------1-|--3--3----------------|-------------------|
A|--1--1--1--1--1-------1-3---|----------------------|-------------------|
E|-----------------1--3-------|----------------------|-------------------|

    W                   W                   W                   W                 
G|-------------------|-------------------|-------------------|-------------------|
D|-------------------|-------------------|-------------------|-------------------|
A|-------------------|-------------------|-------------------|-------------------|
E|-------------------|-------------------|-------------------|-------------------|

    W                   W                   W                   W                 
G|-------------------|-------------------|-------------------|-------------------|
D|-------------------|-------------------|-------------------|-------------------|
A|-------------------|-------------------|-------------------|-------------------|
E|-------------------|-------------------|-------------------|-------------------|

    W                   W                   H        E  E  E  E   
G|-------------------|-------------------|-----------------------|
D|-------------------|-------------------|--------------0--2--4--|
A|-------------------|-------------------|-----------------------|
E|-------------------|-------------------|-----------------------|

    Q.     S  S Q.     E     E  E  Q    E  E  E  E     E  E  E  E  E  E  E  E   
G|--0---------------------|-------------------------|--------------------------|
D|------------------------|-------------------------|--------------------------|
A|---------3p-1-----------|-------------------------|--1--1--1--1--1--1--1--1--|
E|--------------3------1--|--L--3--L----3--3--3--3--|--------------------------|

    E  E  E  E  E  E  E  E     Q    Q    H           E  Q    Q    Q    E   
G|--------------------------|---------------------|----------3------------|
D|-----------------------1--|---------------------|--1--1---------3-------|
A|--1--1--1--1--1--1--3-----|---------------------|--------------------3--|
E|--------------------------|--1----1-------------|-----------------------|

    Q    Q    H           E  Q    Q    Q    E     E  E  Q    E  E  Q     
G|---------------------|-----------------------|------------------------|
D|---------------------|--1--1----3----1-------|------------------------|
A|---------------------|--------------------1--|------------------------|
E|--1----1-------------|-----------------------|--1--1--1----1--1--1----|

    E  Q     Q    Q    E     E  E  Q    E  E  Q       E  Q     Q    Q    E   
G|------------------------|------------------------|------------------------|
D|----------/3----1-------|------------------------|----------/3----1-------|
A|--3--3---------------1--|------------------------|--3--3---------------1--|
E|------------------------|--1--1--1----1--1--1----|------------------------|

    E  E  Q    E  E  Q       E  Q     Q    Q    E     E  E  Q    E  E  Q     
G|------------------------|------------------------|------------------------|
D|------------------------|----------/3----1-------|------------------------|
A|------------------------|--3--3---------------1--|------------------------|
E|--1--1--1----1--1--1----|------------------------|--1--1--1----1--1--1----|

    E  Q     Q    Q    E     E  E  Q    E  E  Q       E  Q     Q    Q    E   
G|------------------------|------------------------|------------------------|
D|----------/3----1-------|------------------------|----------/3----1-------|
A|--3--3---------------1--|------------------------|--3--3---------------1--|
E|------------------------|--1--1--1----1--1--1----|------------------------|

    E  E  Q    E  E  Q       E  Q     Q    Q    E     E  E  Q    E  E  Q     
G|------------------------|------------------------|------------------------|
D|------------------------|----------/3----1-------|------------------------|
A|------------------------|--3--3---------------1--|------------------------|
E|--1--1--1----1--1--1----|------------------------|--1--1--1----1--1--1----|

    E  Q     Q    Q    E     E  E  E  S S E  E  E  E     E  E  E  E  E  E  E  E   
G|------------------------|---------------------------|--------------------------|
D|----------/3----1-------|--3--3---------------------|--1--3--1--3--3--3--------|
A|--3--3---------------1--|--------1--3-3-L--3--1--3--|--------------------------|
E|------------------------|---------------------------|--------------------1--3--|

    W                   H.           E  E     W                 
G|-------------------|---------------------|-------------------|
D|-------------------|---------------------|-------------------|
A|-------------------|---------------------|-------------------|
E|--4----------------|--L------------1--3--|--4----------------|

    H.           E  E     W                   H.           E  E   
G|---------------------|-------------------|---------------------|
D|---------------------|-------------------|---------------------|
A|------------------1--|--3----------------|--L---------------1--|
E|--L------------4-----|-------------------|---------------4-----|

    E  E  E  E  E  E  E  E     E  E  E  E  E  E  E  E     Q    Q    E  E  E  E   
G|--------------------------|--------------------------|------------------------|
D|--------------------------|--------------1--3--1-----|------------------------|
A|--3--3--3--3--3--3--3--3--|--3--3--3--3-----------3--|------------------------|
E|--------------------------|--------------------------|--1----1----1--1--1--1--|

    E  E  E  E  E  E  E  E     Q    Q    E  E  E  E     E  E  E  E  E  E  E  E   
G|--------------------------|------------------------|--------------------------|
D|--------------------------|------------------------|--------------------------|
A|--------------------------|------------------------|--------------------------|
E|--1-----1-----1--1--1--0--|--1----1----1--1--1--1--|--1-----1-----1--1--1--0--|

    Q    Q    E  E  E  E     E  E  E  E  E  E  E  E     Q    Q    E  E  E  E   
G|------------------------|--------------------------|------------------------|
D|------------------------|--------------------------|------------------------|
A|------------------------|--------------------------|------------------------|
E|--1----1----1--1--1--1--|--1-----1-----1--1--1--0--|--1----1----1--1--1--1--|

    E  E  E  E  Q    Q       Q     Q    E  E  E  E     E  E  E  E  E  E  E  E   
G|------------------------|-------------------------|--------------------------|
D|-------------------1----|--3\---------------------|--------------------------|
A|--------------1---------|--------1----------------|--------------------------|
E|--1-----1---------------|-------------1--1--1--1--|--1-----1-----1--1--1--0--|

    Q    Q    E  E  E  E     E  E  E  E  Q    Q       Q    Q    E  E  E  E   
G|------------------------|------------------------|------------------------|
D|------------------------|-------------------1----|--3----3----3--3--3--3--|
A|------------------------|--------------1---------|------------------------|
E|--1----1----1--1--1--1--|--1-----1---------------|------------------------|

    E  E  E  E  E  E  E  E     E  Q.     E  E  E  S S   
G|--------------------------|-----------------------3h-|
D|--3-----3-----3--3--1-----|------------------3--5----|
A|-----------------------1--|--3--3------3--3----------|
E|--------------------------|--------------------------|

    S  S Q    E  E  E  S  S E      E  E  E  E  E  E  E  E   
G|--5p-3------------3-----------|--------------------------|
D|-------3----3--5-----5p-3-----|--------------------------|
A|--------------------------5\--|--1--1--1--1--1--1--1--1--|
E|------------------------------|--------------------------|

    E  S S S S E  E  E  S S E     Q    Q    H           W                 
G|-----------------------------|---------------------|-------------------|
D|--3--3-1-3------1--3--3-1----|---------------------|-------------------|
A|-----------3-3------------3--|---------------------|-------------------|
E|-----------------------------|--1----1-------------|-------------------|

    W                     H         S S  E  S  S E      E  E  E  S S E  E  E  E   
G|-------------------|--/10--------10-8-10--8--------|---------------------------|
D|-------------------|------------------------10-8\--|---------------1--1-----3--|
A|-------------------|-------------------------------|-----------1-3-------------|
E|-------------------|-------------------------------|--1--1---------------------|

    E  Q    E  S S E  S E.     E  E  Q    E  E  S  S E   
G|--------------------------|---------------------------|
D|--1----------1---1--------|--3--3-------1--1--3p-1----|
A|-----1----1----3----3-1---|------------------------3--|
E|--------------------------|---------------------------|

    E  Q    E  E  E  S E.     E  E  Q    E  E  Q       E  Q    E  E  E  S E.   
G|-------------------------|------------------------|-------------------------|
D|--1----------------1-----|-------------1--1-------|--1------------------1---|
A|-----1----1--3--3----1---|------------------------|-----1----1--3--3--3-----|
E|-------------------------|--1--1------------------|-------------------------|

    E  E  Q    E  E  Q       E  E  E  E  E  E  S E.     E  E  Q    E  E  Q     
G|------------------------|--------------------------|------------------------|
D|-------------1--1-------|--1-----------1--1----1---|-------------1--1-------|
A|------------------------|-----1--3--3--------3-----|------------------------|
E|--1--1------------------|--------------------------|--1--1------------------|

    E  Q    E  S S E  S E.     E  E  E  S  S E  E  Q     
G|--------------------------|---------------------------|
D|--1----------1---1--------|----------------1--1-------|
A|-----1----1----3----3-1---|-----------1h-3------------|
E|--------------------------|--1--1---------------------|

    E  Q    E  S S E  S E.     E  E  S S S S E  E  S S S S  
G|--------------------------|------------------------------|
D|--1----------1---1--------|--3--3----------3--3----------|
A|-----1----1----3----3-1---|--------3-1-3-1-------3-1-3-1-|
E|--------------------------|------------------------------|

    E  E  E  E  E  E  S E.     E  E  E  S  S E  E  Q     
G|--------------------------|---------------------------|
D|--3-----------1--1--------|----------------1--1-------|
A|-----1--3--3--------3-1---|-----------1h-3------------|
E|--------------------------|--1--1---------------------|

    E  E  E  E  E  E  S E.     E  E  S S S S E  E  S S S S  
G|--------------------------|------------------------------|
D|--1-----------1--1--------|--3--3----------3--3----------|
A|-----1--3--3--------3-1---|--------3-1-3-1-------3-1-3-1-|
E|--------------------------|------------------------------|

    E  E  E  E  E  E  S E.     E  E  E  S  S E  E  Q     
G|--------------------------|---------------------------|
D|--3-----------1--1--------|----------------1--1-------|
A|-----1--3--3--------3-1---|-----------1h-3------------|
E|--------------------------|--1--1---------------------|

    E  E  E  E  E  E  S E.    
G|--------------------------|
D|--1-----------1--1--------|
A|-----1--3--3--------3-1---|
E|--------------------------|


Duration Legend
---------------
W - whole
H - half
Q - quarter
E - 8th
S - 16th
T - 32nd
X - 64th
. - note dotted
|-n-|  - n-tuplets

************************************

| \  Slide down
| >  Accented note
| h  Hammer-on
| p  Pull-off
| /  Slide up

************************************

            
            
Suggest correction
Creating personal tab
Creating personal tab
You can edit any tab online and save it as your Personal.

You can edit, replace or remove any tab part or add personal notes – all changes will be seen only by you.

Personal tabs can be accessed anytime from any device, even offline.
Learn more »
comments
print report bad tab
1 comment total.
0 reply
RealUnrealRob 30 Jun 01, 2014 06:09 AM

Good but definitely missing details in the intro.

guest
You may want to rate the tab now too:
select rating
Wanna post a correction for this tab? Suggest correction