Oops, an error
Loading. Please wait.

Hitch A Ride Tab

version 1
version 1

Solo

Whole song

Interactive

by Boston
10,018 views 27 this week
1 commentread comment
1 2 3 4 5
x 3
add to favorites
launch autoscroll
font size
0
reset
how to read this tab
guitar tuner
backing track
0:00
0:00
×
Best way to learn
"Hitch A Ride"
Autoscroll
slow
fast
+/-
esc
set tempo
stop
Tuning
E A D G B E
Band: Boston
Song: Hitch A Ride (solo)


e|----------11-13-11-------11-13b15r13--11---11----------11--------------|
B|-11-11h13----------11h13----------------13----11-11h13-----------------|
G|----------------------------------------------------------13-12--------|
D|-----------------------------------------------------------------------|
A|-----------------------------------------------------------------------|
E|-----------------------------------------------------------------------|

e|------------------------------------------18----18b20r18-15-15h16p15----|
B|---------------------------------16-18b20----16----------------------18-|
G|-------15-17/--------15----15-17----------------------------------------|
D|-15/17---------15/17----17----------------------------------------------|
A|------------------------------------------------------------------------|
E|------------------------------------------------------------------------|

e|---------------------------18-------------------------------------------|
B|-16-16-18-16--16-18b20-b20----18b20-------------------------------------|
G|------------------------------------------------------------------------|
D|-------------------------------------x----------------------------------|
A|-------------------------------------x----------------------------------|
E|------------------------------------------------------------------------|

e|------------------------------------------------------------------------|
B|---------------------------------------------11-------------11b13-11-9--|
G|--10b12r10-8----8-8------8-10--10b12r10----8----8--10b12-10-------------|
D|-------------10-----10p8----------------10------------------------------|
A|------------------------------------------------------------------------|
E|------------------------------------------------------------------------|

e|--8h9p8-----------------------------------------------------------------------|
B|--------10p9------------------------------------------------------------------|
G|-----------------8------b12r10-b12r10-b12r10-b12--x---8-10b12r10-8----8-8-----|
D|--------------10---10p8---------------------------x----------------10----10p8-|
A|------------------------------------------------------------------------------|
E|------------------------------------------------------------------------------|

e|----------------------------10-----------------------20-----------------|
B|-----------------14--15---7------------20b21-b21-b21----20b21r20-18-20--|
G|-10b12r10-8----8-10--11---------12-13-----------------------------------|
D|------------10----------------------------------------------------------|
A|------------------------------------------------------------------------|
E|------------------------------------------------------------------------|

e|-------18---------------16-15h16p15----15-16---------16-15h16p15----15-16----|
B|-18b20----b20r18-16--16-------------18------------16-------------18----------|
G|----------------------------------------------18--------------------------17-|
D|-----------------------------------------------------------------------------|
A|-----------------------------------------------------------------------------|
E|-----------------------------------------------------------------------------|

e|----16-------16-15h16p15-----------------------------------------------------|
B|-16----------------------18-16-13--------------------------11-------8-11-8---|
G|-------16-15----------------------15-13-12h13p12-----10b12----10b12----------|
D|-------------------------------------------------13--------------------------|
A|-----------------------------------------------------------------------------|
E|-----------------------------------------------------------------------------|

e|-----------------------------------------------------------------------------|
B|---8-11-8-----------11b13--11-9-8h9p8----------------------------------------|
G|-10-------10-8----8--------------------10p8--8---------8-10p8---8h10p8-------|
D|---------------10--------------------------10--10p8-10--------10-------------|
A|-----------------------------------------------------------------------------|
E|-----------------------------------------------------------------------------|

e|-----------------------------------------------------------------------------|
B|-----------9-11---8-9-11-13p11----11h13p11--1414b16r14-11-14-11----11-13-11--|
G|---------8------8--------------13-------------------------------13-----------|
D|-10p8h10---------------------------------------------------------------------|
A|-----------------------------------------------------------------------------|
E|-----------------------------------------------------------------------------|

e|--------------14b16r15r14-14b16-14b16r14-12-14p11----11h14p11h13p12----------|
B|-13-11----11--------------------------------------13----------------13-11----|
G|-------13--------------------------------------------------------------------|
D|-----------------------------------------------------------------------------|
A|-----------------------------------------------------------------------------|
E|-----------------------------------------------------------------------------|

e|-----------------------------------------------------------------------------|
B|-14b16-14-13-11--------------------------------------------------------------|
G|----------------14p13p11------------------------13-12h13p12----12-13-12------|
D|-------------------------13p12p11--------/13-13-------------15----------13---|
A|----------------------------------11/10--------------------------------------|
E|-----------------------------------------------------------------------------|

e|------------------------------------------------11h13-11h13-11h13p11---------|
B|-----------------------------14b16-14b16--11-13----------------------13------|
G|-13-12-----13-12-------10-12-------------------------------------------------|
D|-----------------11-13-------------------------------------------------------|
A|-------15--------------------------------------------------------------------|
E|-----------------------------------------------------------------------------|

e|--11h13p11----11h13p11----11h13p11----11h13p11-------19b21-------------------|
B|-----------13----------13----------13----------13-11-------18p16-------------|
G|-----------------------------------------------------------------17----------|
D|-----------------------------------------------------------------------------|
A|-----------------------------------------------------------------------------|
E|-----------------------------------------------------------------------------|

e|--------------------16b18--16b18---------------------------------------------|
B|-16h18p16-------15--18b20--18b20-------------16-18-16----------16-18b20r18---|
G|----------17p15---------------------15-15h17----------15-15h17---------------|
D|-----------------------------------------------------------------------------|
A|-----------------------------------------------------------------------------|
E|-----------------------------------------------------------------------------|

e|-----------------------15b16--------------|
B|-16-----16----------16--------16----------|
G|----17-----15-15-17-----------13--12/15---|
D|------------------------------------------|
A|------------------------------------------|
E|------------------------------------------|
Suggest correction
Give kudos to tab author, rate the tab!
1 2 3 4 5
comments
print report bad tab
1 comment total.
0 reply
M&M5192 10 Nov 22, 2005 11:24 AM

wow me= hopeless.... well on the very first rythym where it ends 13 then 11, I think its sounds better ending 13, 12 but thats just me.

guest
You may want to rate the tab now too:
select rating
Wanna post a correction for this tab? Suggest correction