Oops, an error
Loading. Please wait.

Hitch A Ride bass

version 2
version 2

Whole song

  • While this song has been tabbed out as a 5 string ... Show more

Interactive

by Boston
97 views 3 this week
no commentswrite comment
1 2 3 4 5
1 last vote to show rating
add to favorites
×
Save as Personal and add changes to this tab that will be seen only by you. Learn more ›
×
You can save this tab as Personal to edit and correct it or add notes. All changes will be seen only by you. Learn more »
launch autoscroll
font size
0
reset
guitar tuner
backing track
0:00
0:00
edit
Autoscroll
slow
fast
+/-
esc
set tempo
stop
About this tab version
While this song has been tabbed out as a 5 string tab in it's original half step up tuning, this can easily be played on a 4 string, only missing 2 very minor notes in the song from the C string. Was this info helpful? Yes No
Title: Hitch A Ride
Artist: Boston
Album: Boston
Tuning: 5 String Standard - 1/2 step up (C F A# D# G#)
Tab Author: Pearce Hamblin (The Bass Diaries)

   [Intro]                             [Verse 1]
G#|--------|--------|--------|--------|--------|--------|--------|--------|--------|
D#|--------|--------|--------|--------|--------|--------|--------|--------|--------|
A#|--------|--------|--------|--------|--------|--------|--------|--------|--------|
 F|--------|--------|--------|--------|--------|--------|--------|--------|--------|
 C|--------|--------|--------|--------|--------|--------|--------|--------|--------|

                                                       [Chorus 1]
G#|--------|--------|---------------------------------|-------------------7---------------|
D#|--------|--------|-------------------------7-------|---------4--5--7---------------5---|
A#|--------|--------|---------------------------------|-5---5-----------------5-----------|
 F|--------|--------|---------------------------------|-----------------------------------|
 C|--------|--------|---------------------------------|-----------------------------------|


G#|-----------------------------------|-----------------------------------|
D#|-----4-----------------------------|-----------------------------------|
A#|-------------7---5-----7-----------|---------7--5----------------------|
 F|--------------------7------5-------|-7---7---------7---5-------7---0---|
 C|-----------------------------------|-----------------------------------|


G#|-------------------------------------|-------------------7---------------|
D#|---------------------------7--5------|---------4--5--7---------------5---|
A#|---------------------------------7---|-5---5-----------------5-----------|
 F|-----0---2---3--0--5---5-------------|-----------------------------------|
 C|-------------------------------------|-----------------------------------|


G#|-----------------------------------|-----------------------------------|
D#|-----4-----------------------------|-----------------------------------|
A#|-------------7---5-----7-----------|---------7---5---------------------|
 F|--------------------7------5-------|-7---7----------7--5-------7---0---|
 C|-----------------------------------|-----------------------------------|


G#|-------------------------------------|-------------------7--5---4------------|
D#|---------------------------7--5------|---------4--5--7----------------7---5--|
A#|---------------------------------7---|-5---5---------------------------------|
 F|-----0---2--0--3---5---5-------------|---------------------------------------|
 C|-------------------------------------|---------------------------------------|

                                         [Interlude]
G#|-------------------------------------|---------------------------------|
D#|-------------------------------------|---------------------------------|
A#|-7---7---5---5--0--4---4---2--4--2---|-0-------------------------------|
 F|-------------------------------------|---------------------------------|
 C|-------------------------------------|---------------------------------|


G#|---------------------------------|---------------------------------|
D#|---------------------------------|---------------------------------|
A#|-12----------------------12------|-5-----------------------12------|
 F|---------------------------------|---------------------------------|
 C|---------------------------------|---------------------------------|

                                         [Verse 2]
G#|-------------------------------------|---------------------------------|---------------------------------|
D#|-----------------7--7---7-----5------|---------7-------5-----------4---|---------------------------------|
A#|-0-------------------------------7---|-0-------------------------------|-----0-------4-------5-------7---|
 F|-------------------------------------|---------------------------------|---------------------------------|
 C|-------------------------------------|---------------------------------|---------------------------------|


G#|---------------------------------|---------------------------------|---------------------------------|
D#|-7-------7-------5-----------4---|---------------------------------|-7-------7-------5-----------4---|
A#|-----0---------------------------|-----0-------4-------5-------7---|-----0---------------------------|
 F|---------------------------------|---------------------------------|---------------------------------|
 C|---------------------------------|---------------------------------|---------------------------------|


G#|---------------------------------|---------------------------------|---------------------------------|
D#|---------------------------------|-7-------7-------5-----------4---|-----------------------------7---|
A#|-----0-------4-------5-------7---|-----0---------------------------|-----0-------4-------5---7-------|
 F|---------------------------------|---------------------------------|---------------------------------|
 C|---------------------------------|---------------------------------|---------------------------------|

   [Chorus 2]
G#|-------------------7---------------|-----------------------------------|
D#|---------4--5--7---------------5---|-----4-----------------------------|
A#|-5---5-----------------5-----------|-------------7---5-----7-----------|
 F|-----------------------------------|--------------------7------5-------|
 C|-----------------------------------|-----------------------------------|


G#|-----------------------------------|-------------------------------------|
D#|-----------------------------------|-------------------------------------|
A#|---------7---5---------------------|---------------------------4---5--7--|
 F|-7---7----------7--5-------7---0---|-----0---2---3--0--5---5-------------|
 C|-----------------------------------|-------------------------------------|


G#|-------------------7---------------|-----------------------------------|
D#|---------4---5--7--------------5---|-----4-----------------------------|
A#|-5---5-----------------5-----------|-------------7---5--7--5-----------|
 F|-----------------------------------|---------------------------5-------|
 C|-----------------------------------|-----------------------------------|


G#|-----------------------------------|-------------------------------------|
D#|-----------------------------------|-------------------------------------|
A#|---------7---5--7------------------|---------------------------4--5--7---|
 F|-7---7-------------5-------7---0---|-----0---2---3--0--5---5-------------|
 C|-----------------------------------|-------------------------------------|

   [Solo 1]
G#|-------------------------------------|---------------------------------------|
D#|-4---------------4--2---2-----2---4--|---------4---2------2--4--2------------|
A#|-------------------------------------|-----------------------------4---------|
 F|---------2---------------------------|-2------------------------------5------|
 C|-------------------------------------|---------------------------------------|


G#|---------------------------------------|---------------------------------------|
D#|---------4-----------------------------|---------4---2---------4--2------------|
A#|----------------0--4-------------------|--------------------4--------4---------|
 F|-2--------------------0---0-----5---0--|-2------------------------------5------|
 C|---------------------------------------|---------------------------------------|


G#|-------------------------------------|---------------------------------------|
D#|---------4-------4--2---2-----2---4--|---------4---2---------4--2------------|
A#|-------------------------------------|--------------------4--------4---------|
 F|-2-----------------------------------|-2------------------------------5------|
 C|-------------------------------------|---------------------------------------|


G#|---------------------------------------|---------------------------------------|
D#|---------4-----------------------------|---------4---2------2--4--2------------|
A#|----------------0--4-------------------|-2---------------------------4---------|
 F|-2--------------------0---0-----5---0--|--------------------------------5------|
 C|---------------------------------------|---------------------------------------|

                                                                                    [Break]
G#|-------------------------------------|---------------------------------|--------|--------|
D#|-------------------------------------|---------------------------------|--------|--------|
A#|-2-------2---------------------------|-7-------------------------------|--------|-0------|
 F|----------------0--5--0--5---5---0---|---------------------------------|--------|--------|
 C|-------------------------------------|---------------------------------|--------|--------|


G#|--------|----------------------------------------|
D#|--------|5h7-----------7----5h7------------5h7---|
A#|--------|----------------------------------------|
 F|--------|----------------------------------------|
 C|--------|----------------------------------------|

                                             [Solo 2]
G#|-----------------------------------------|--------------------------------------|
D#|------5h7------------5h7---7---7--5------|---------7--------5h7---7-----7-------|
A#|-------------------------------------7---|---------------------------7----------|
 F|-----------------------------------------|-5---5--------------------------------|
 C|-----------------------------------------|--------------------------------------|


G#|---------------------------------------|-------------------------------------|
D#|-----------7------5--7---7---7--5------|-------------------------------------|
A#|-----5--7--------------------------7---|---------7-----------------7---------|
 F|-5-------------------------------------|-5---5------5------5---5------5------|
 C|---------------------------------------|-------------------------------------|

                                           [Chorus 3]
G#|---------------------------------------|-------------------7---------------|
D#|---------7-------------------7---------|---------4--5--7---------------5---|
A#|-----------------------5--7-----7------|-5---5-----------------5-----------|
 F|-5---5------5------5---------------5---|-----------------------------------|
 C|---------------------------------------|-----------------------------------|


G#|-----------------------------------|-----------------------------------|
D#|-----4-----------------------------|-----------------------------------|
A#|-------------7---5--7--5-----------|---------7---5---------------------|
 F|---------------------------5-------|-7---7----------7--5-------7---0---|
 C|-----------------------------------|-----------------------------------|


G#|-----------------------------------|-------------------7---------------|
D#|-------------------------------7---|---------4--5--7---------------5---|
A#|-----------------------------------|-5---5-----------------5-----------|
 F|-----0---2---3--0--5---5---5-------|-----------------------------------|
 C|-----------------------------------|-----------------------------------|


G#|-----------------------------------|-----------------------------------|
D#|-----4-----------------------------|-----------------------------------|
A#|-------------7---5--7--5-----------|---------7--5----------------------|
 F|---------------------------5-------|-7---7---------7---5-------7\\\0---|
 C|-----------------------------------|-----------------------------------|

                                         [Bridge]
G#|-------------------------------------|---------------------------------|
D#|-------------------------------------|---------------------------------|
A#|---------------------------4--5--7---|-5-------------------------------|
 F|-----0---2--0--3---5---5-------------|---------------------------------|
 C|-------------------------------------|---------------------------------|


G#|--------|--------|--------|--------|--------|--------|
D#|--------|--------|--------|--------|--------|--------|
A#|--------|--------|--------|--------|--------|--------|
 F|--------|--------|--------|--------|--------|--------|
 C|--------|--------|--------|--------|--------|--------|

                                     [Solo 3]
G#|5h7---------------------------7---|-----------------------------------|
D#|----------------------------------|-----------------------4---5---7---|
A#|----------------------------------|-5-----------------5---------------|
 F|----------------------------------|----------------5------------------|
 C|----------------------------------|-----------------------------------|


G#|-------------------------------------|-----------------------------------|
D#|-----7---7---7-----7---7--9--7-------|-5-----------4-------4---5--4------|
A#|----------------5----------------5---|-------------------------------7---|
 F|-------------------------------------|-----------------------------------|
 C|-------------------------------------|-----------------------------------|


G#|---------------------------------|-----------------------------------|
D#|---------4-------5---7-----------|-----------------------4---5---7---|
A#|-5-------------------------------|-5-------5---------5---------------|
 F|-------------------------5---7---|----------------5------------------|
 C|---------------------------------|-----------------------------------|


G#|-------------------------------------|-----------------------------------|
D#|-----7---7---7---7-----7--9--7-------|-5-------5---4-------4---5--4------|
A#|--------------------9------------5---|-------------------------------7---|
 F|-------------------------------------|-----------------------------------|
 C|-------------------------------------|-----------------------------------|


G#|-------------------------7--4------|-----------------------------------|
D#|---------4-------5---7---------7---|-----------------------4---5---7---|
A#|-5---------------------------------|-5-------5---------5---------------|
 F|-----------------------------------|----------------5------------------|
 C|-----------------------------------|-----------------------------------|


G#|---------------------------------------|-11----------9-------9---7---------|
D#|-----7---7---7-----7--9--7-----7-------|----------------------------9--7---|
A#|----------------9-----------9----------|-----------------------------------|
 F|---------------------------------------|-----------------------------------|
 C|---------------------------------------|-0---------------------------------|


G#|---------------------------------9---|-----------------------------------|
D#|---------4---------5---------7-------|-----------------------------------|
A#|-5--------------5---------5----------|-5-------5---------5---5---7-------|
 F|-------------------------------------|----------------5--------------5---|
 C|-------------------------------------|-----------------------------------|


G#|-------------------------------------|---------------------------------|
D#|-------------------------------------|---------------------------------|
A#|-------------------------------------|---------5-----------------------|
 F|-----5---5---5--0--5---5---7--5------|-3-----------2-------2---3---5---|
 C|-------------------------------------|---------------------------------|


G#|-------------------------------7---|-----------------------------------|
D#|---------4---4-----5---5---7-------|-----------------------4---5-------|
A#|-5--------------5------------------|-5-------5---------5-----------3---|
 F|-----------------------------------|----------------5------------------|
 C|-----------------------------------|-----------------------------------|


G#|-------------------------------------|---------------------------------|
D#|---------------------------5---------|---------------------------------|
A#|---------3---------3---3------3------|-2-------5-----------------------|
 F|----------------5--------------------|-------------3-------2---3---5---|
 C|-------------------------------------|---------------------------------|


G#|-------------------------------7---|-----------------------------------|
D#|---------4-------5--4--5---7-------|---------------------------7-------|
A#|-5---------------------------------|-5-------5---------5---5-------5---|
 F|-----------------------------------|----------------5------------------|
 C|-----------------------------------|-----------------------------------|


G#|---------------------------7-------|-----------------------------------|
D#|-----------------------------------|-------------------------5--4------|
A#|---------5---------5---5-------5---|-5-----------5-------5---------7---|
 F|----------------5------------------|-----------------------------------|
 C|-----------------------------------|-----------------------------------|


G#|---------------------------------|-----------------------------------|
D#|---------4-------5---------------|---------------------------7-------|
A#|-5-------------------------------|-5-------5---------5---5-------3---|
 F|-------------------------5---7---|----------------7------------------|
 C|---------------------------------|-----------------------------------|


G#|-------------------------------------|---------------------------------|
D#|---------------------------5--4------|---------------------------------|
A#|---------3---3-----3---5---------5---|-2-------5-----------------------|
 F|----------------5--------------------|-------------3-------2-------3---|
 C|-------------------------------------|---------------------------------|


G#|-------------------------------7---|-----------------------------------|
D#|---------4-------5--4--5---7-------|---------------------------7-------|
A#|-5---------------------------------|-5-------5---------5---5-------5---|
 F|-----------------------------------|----------------5------------------|
 C|-----------------------------------|-----------------------------------|


G#|---------------------------------7---|-----------------------------------|
D#|---------------------------5--7------|-------------------------7---------|
A#|---------5---------5---5-------------|-5-------5---5-------5------5------|
 F|----------------5--------------------|-------------------------------5---|
 C|-------------------------------------|-----------------------------------|


G#|-----------------------------------|-----------------------------------|
D#|---------4-------5--4--5-----------|---------------------------7-------|
A#|-5---------------------------------|-5-------5---------5---5-------5---|
 F|---------------------------5---7---|----------------5------------------|
 C|-----------------------------------|-----------------------------------|


G#|-----------------------------------|---------------------------------|
D#|---------------------------7-------|-5-----------4-------5-----------|
A#|-----5---5---------5---5-------5---|---------------------------------|
 F|----------------5------------------|-------------------------5---7---|
 C|-----------------------------------|---------------------------------|

                                           [Outro]
G#|-----------------------------5h7-------|---------------------------------|
D#|------------------5h7------------------|---------------------------------|
A#|-5-------------------------------------|-5-------------------------------|
 F|---------------------------------------|---------------------------------|
 C|---------------------------------------|---------------------------------|


G#|---------------------------5h7----5h7----|5h7----------------------------------|
D#|-----------------------------------------|-------------------------------------|
A#|-----------------------------------------|---------------------------5h7-------|
 F|-----------------------------------------|-------------------------------------|
 C|-----------------------------------------|-------------------------------------|


G#|---------------------------------|
D#|---------------------------------|
A#|-5-------------------------------|
 F|---------------------------------|
 C|-0-------------------------------|



***********************************
| \   Slide down
| h   Hammer on
***********************************

            
            
Suggest correction
Creating personal tab
Creating personal tab
You can edit any tab online and save it as your Personal.

You can edit, replace or remove any tab part or add personal notes – all changes will be seen only by you.

Personal tabs can be accessed anytime from any device, even offline.
Learn more »
Give kudos to tab author, rate the tab!
1 2 3 4 5
comments
print report bad tab
guest
You may want to rate the tab now too:
select rating
Wanna post a correction for this tab? Suggest correction