Oops, an error
Loading. Please wait.

More Than A Feeling Tab

version 3
version 3

Whole song

Video

7,849 views 9 this week
no commentswrite comment
1 2 3 4 5
excellent!
x 4
add to favorites
launch autoscroll
font size
0
reset
how to read this tab
guitar tuner
Autoscroll
slow
fast
+/-
esc
set tempo
stop
Help us to improve Ultimate-Guitar.com Take our survey!
×
Contributor
Difficulty
intermediate
More Than A Feeling


----------------------------------------------------------------------------|
---2--3--5--7--------7-8-7h8p7-5-----8b10-------8--7--5h7p5-----5--7--------|
----------------------------------7---------7----------------7--------7-----|
----------------------------------------------------------------------------|
----------------------------------------------------------------------------|
----------------------------------------------------------------------------|
2nd guitar
----------------------------------------------------------------------------|
-12-10h12p10-8-7-10-8-7-5---------------------------------------------------|
----------------------------------------------------------------------------|
----------------------------------------------------------------------------|
----------------------------------------------------------------------------|
----------------------------------------------------------------------------|
1st guitar
----------------------------------------------------------------------------|
-8-7h8p7-5------------------------------------------------------------------|
-----------7-9b11r9-7-6-----------------------------------------------------|
---------------------------7------------------------------------------------|
----------------------------------------------------------------------------|
----------------------------------------------------------------------------|
2nd guitar
--------------------------10-----9---7--5h7p5-3-5---------------------------|
----------------------------------------------------------------------------|
----------------------------------------------------------------------------|
----------------------------------------------------------------------------|
----------------------------------------------------------------------------|
----------------------------------------------------------------------------|
1st guitar
----------------------------------------------------------------------------|
---5--7---7-8-7h8p7--5----12-----10--8--7h8p7-5-7----8-7-5h7p5----5------7--|
---------------------------------------------------7------------7----7------|
----------------------------------------------------------------------------|
----------------------------------------------------------------------------|
----------------------------------------------------------------------------|

-------------------------------17b19----------------------------------------|
-5h7p5----------------15-14-------------------------------------------------|
---------7-6-7---------------16---------------------------------------------|
----------------------------------------------------------------------------|
----------------------------------------------------------------------------|
----------------------------------------------------------------------------|
comments
print report bad tab
I want to post or [tab]
guest
You may want to rate the tab now too:
select rating
Please do not post tabs as comments. Select "correction" instead!