Oops, an error
Loading. Please wait.
We have an official More Than A Feeling tab made by UG professional guitarists. Check out the tab »
×
by Boston
31,662 views 18 this week
2 commentsread comments
1 2 3 4 5
x 21
add to favorites
×
Save as Personal and add changes to this tab that will be seen only by you. Learn more ›
×
You can save this tab as Personal to edit and correct it or add notes. All changes will be seen only by you. Learn more »
launch autoscroll
font size
0
reset
guitar tuner
backing track
0:00
0:00
edit
Autoscroll
slow
fast
+/-
esc
set tempo
stop
Intro                          Verse
G------------------            G--------------------|
D------------------            D--------------------|
A--5~-0-3~-2~------    x2      A--5~--5h7p5-3~-2~---|
E------------3~----            E------------------3-|
pre chorus
G--------------------------------------------------------|
D------------------7-7-7h9p7-5-5-5h7p5-------------------|
A--5~--5h7p5-3~-2~--------------------7-5-5-5-5-5-5-5-5--|
E--------------------------------------------------------|
Chorus
G------------------------------|
D---------------2-22-2-00-0----|
A----------33-3-------------3--|   x5
E--3-33-3----------------------|
Bridge
G-------------------------------9-7------------------------------------------|
D-------------------------7---------9-7-55-4------5-7-5~4~-------5~----------|
A--------33-3-6~-77-9-7-9---9-7--------------77-5----------7~-5~----5~3~2~3~-|
E-3-33-3---------------------------------------------------------------------|
Verse
Pre Chorus
Chorus
Bridge 2
G-------------------------------9-7-----4-4-4-4-2-2-2-2---------------------|
D-------------------------7---------9-7-----------------5-5-5-5-4-4-4-4-7-7-|
A--------33-3-6~-77-9-7-9---9-7---------------------------------------------|
E-3-33-3--------------------------------------------------------------------|

G----------------------------|
D7-7-7-7-7-7-----------------|
A----------------------------|
E------------5-5-5-5-5-5-5-5-|
Solo
G---------------------------------------------------------------------------|
D-------------------------------5-5-4-5-4-2-----5-5-9-9-9-7-7---------9-9-9-|
A-5--5--5-----------------4-5-5-------------5-5---------------5-5-5-5-------|
E---5--7--2-2-2-2-2-2-5-7---------------------------------------------------|

G----------------------------------------------------|
D-9---------7-7-7-7-5-5-5-5-5-5-5-5-5-5-5-5-5~4~-----|
A---7-7-7-7-------------------------------------7~5~-|
E----------------------------------------------------|
Bridge 3
G----------------------------------------------------------------------------|
D----------------------------------------------------------------------------|
A-5-5-5-5-5-5-5-5-5-5-5-5-5-5-5-5-5-55-5-5-5-5h7p5-3-33-2-22----5-55-5-5h7p5-|
E------------------------------------------------------------33--------------|

G---------------------------------------------------------------------------|
D-----------------------5h7p5-----------------------------------------------|
A-3-33-2-22----5-55-5h7-------3-33-2-22----5-55-5h7p5-3-33-2-22----5-55-5h7-|
E-----------33--------------------------33----------------------33----------|
Pre Chorus
Chorus

this is my first tab so it may not b perfect

            
            
Suggest correction
Creating personal tab
Creating personal tab
You can edit any tab online and save it as your Personal.

You can edit, replace or remove any tab part or add personal notes – all changes will be seen only by you.

Personal tabs can be accessed anytime from any device, even offline.
Learn more »
comments
print report bad tab
2 comments total.
0 reply
FenderJazzBass 60 Jul 05, 2009 02:51 PM

there may b a few bad spots but just listen to the bass. this is about 90% accurate. if u hav to go online and find a version of the song that just bass thats what i did. and i worked on this for about 5 months and i woudnt post it if it wasnt almost perfect.

-1 reply
tedup 10 Sep 07, 2009 06:40 AM

great tab

guest
You may want to rate the tab now too:
select rating
Wanna post a correction for this tab? Suggest correction