Oops, an error
Loading. Please wait.
We have an official More Than A Feeling tab made by UG professional guitarists. Check out the tab »
×
by Boston
2,566 views 15 this week
no commentswrite comment
1 2 3 4 5
x 7
add to favorites
×
Save as Personal and add changes to this tab that will be seen only by you. Learn more ›
×
You can save this tab as Personal to edit and correct it or add notes. All changes will be seen only by you. Learn more »
launch autoscroll
font size
0
reset
guitar tuner
backing track
0:00
0:00
edit
Autoscroll
slow
fast
+/-
esc
set tempo
stop
About this tab version
More accurate than the others. Was this info helpful? Yes No
Tabbed by: 6METAL6BASSIST6
E-mail: petergriffinav@gmail.com

Tuning: BEADG

0:10

G|----------------------------------------------------------------|
D|----------------------------------------------------------------|
A|5-------------------------------3-----------2-------------------| x2
E|----------------------------5---------------------------3-------|
B|----------------------------------------------------------------|

0:17

G|----------------------------------------------------------------|
D|----------------------------------------------------------------|
A|5-----------------------5---5---3-----------2-------------------|
E|--------------------5-----5-----------------------------3-------|
B|----------------------------------------------------------------|

G|----------------------------------------------------------------|
D|------------------------7---------------------------------------|
A|5-------------------5-----5-----3-----------2-------------------|
E|----------------------------5---------------------------3-------|
B|----------------------------------------------------------------|

G|----------------------------------------------------------------|
D|----------------------------------------------------------------|
A|5-----------------/-5---5h7-5---3-----------2-------------------|
E|--------------------------------------------------------3-------|
B|----------------------------------------------------------------|

G|----------------------------------------------------------------|
D|----------------------------------------------------------------|
A|5-----------------------5---5---3-------------------------------|
E|--------------------5-----5-------------------------------------|
B|----------------------------------------------------------------|

G|--------------------------------|
D|----------------------------5---|
A|2-------------------2---2-------|
E|--------------------------------|
B|--------------------------------|

0:37

G|------------7---------------------------------------------------|
D|7-------5-------5-------7-5-----------------------------7-------|
A|----------7-----------------7---5-------5---5---5---5-----5-----|
E|------------------------------------------------------------5---|
B|----------------------------------------------------------------|

G|----------------------------------------------------------------|
D|----------------------------------------------------------------|
A|--------------------------------7---7---7---7-------5---5---3---|
E|3-----------3---/---8---8-------------7-------------------------|
B|----------------------------------------------------------------|

G|----------------------------------------------------------------|.
D|----------------------------------------------------------------|.
A|--------------------------------7---7---7---7-------5---5-------|.
E|3-----------3-------8---8-------------7---------------------0---|.
B|----------------------------------------------------------------|.
                                                                   . x2
G|----------------------------------------------------------------|.
D|----------------------------------------------------------------|.
A|--------------------------------7---7---7---7-------5---5-------|.
E|3-----------3-------8---8-------------7---------------------2---|.
B|----------------------------------------------------------------|.

G|----------------------------------------------------------------|
D|----------------------------------------------------------------|
A|--------------------------------6---------------------------\---|
E|3-----------3-------8---8---------------------------------------|
B|----------------------------------------------------------------|

1:07

G|----------------------------------------------------------------|
D|----------------------------------------7-/-9-------7---9---7---|
A|--------7-----7-9---7---9---------------------------------9-----|
E|0---------------------------0---5-------------------------------|
B|----------------------------------------------------------------|

G|----------------------------------------------------------------|
D|5-----------5-----------5-------5-----------4-------------------|
A|--------------------------5-----------------------------7-------|
E|----------------------------3-----------------------------------|
B|----------------------------------------------------------------|

G|----------------------------------------------------------------|
D|----------------------------5-/-10----------9-----------5-------|
A|5---------------------------------------------------------------|
E|----------------------------------------------------------------|
B|----------------------------------------------------------------|

G|----------------------------------------------------------------|
D|----------------------------------------------------------------|
A|5-------------------------------3-----------2-------2---3-2-----|
E|------------------------------------------------------------3---|
B|----------------------------------------------------------------|

1:25

G|----------------------------------------------------------------|
D|----------------------------------------------------------------|
A|5-----------------------5---5---3-----------2-------------------|
E|--------------------5-----5-----------------------------3-------|
B|----------------------------------------------------------------|

G|----------------------------------------------------------------|
D|------------------------7---------------------------------------|
A|5-----------------/-5-----5-----3-----------2-------------------|
E|----------------------------5---------------------------3-------|
B|----------------------------------------------------------------|

G|----------------------------------------------------------------|
D|----------------------------------------------------------------|
A|5-----------5-----/-5---5h7-5---3-----------2-------------------|
E|--------------------------------------------------------3-------|
B|----------------------------------------------------------------|

G|------------7---------------------------------------------------|
D|--------5h7-------------7---------------------------------------|
A|5-------------------5-----5-----3-------------------------------|
E|----------------------------5-----------------------------------|
B|----------------------------------------------------------------|

G|--------------------------------|
D|----------------------------5---|
A|2-------------------------------|
E|--------------------------------|
B|--------------------------------|

1:45

G|----------------------------------------------------------------|
D|7-------7-------5-------7-5-----------------------------7-------|
A|------------7---------------7---5-------5---5---5---5-----5-----|
E|------------------------------------------------------------5---|
B|----------------------------------------------------------------|

G|----------------------------------------------------------------|
D|----------------------------------------------------------------|
A|--------------------------------7---7---7---7-------5---5-------| x2
E|3-----------3---/---8---8-------------7---------------------0---|
B|----------------------------------------------------------------|

G|----------------------------------------------------------------|
D|----------------------------------------------------------------|
A|--------------------------------7---7---7---7-------5---5-------|
E|3-----------3---/---8---8-------------7---------------------2---|
B|----------------------------------------------------------------|

G|----------------------------------------------------------------|
D|----------------------------------------------------------------|
A|--------------------------------7---7---7---7-------5---5-------|
E|3-----------3-------8---8-------------7---------------------0---|
B|----------------------------------------------------------------|

G|----------------------------------------------------------------|
D|----------------------------------------------------------------|
A|--------------------------------7---7---7---7-------5---5-------|
E|3-----------3---/---8---8-------------7---------------------0---|
B|----------------------------------------------------------------|

G|----------------------------------------------------------------|
D|----------------------------------------------------------------|
A|--------------------------------6---------------------------\---|
E|3-----------3-------8---8---------------------------------------|
B|----------------------------------------------------------------|

2:15

G|----------------------------------------------------------------|
D|------------------------------------7-----/-9-------7---9---7---|
A|--------7-----7-9---7---9---------------------------------9-----|
E|0---------------------------0---5-------------------------------|
B|----------------------------------------------------------------|

G|----------------------------------------------------------------|
D|9---9---9---9---7---7---7---7---5---5---5---5---4---4---4---5---|
A|----------------------------------------------------------------|
E|----------------------------------------------------------------|
B|----------------------------------------------------------------|

G|----------------------------------------------------------------|
D|7-------7---7-/-7---7---7---5---------------------------7-------|
A|------------------------------5---------------------------5-----|
E|--------------------------------5---5---5---5---5---5-------5---|
B|----------------------------------------------------------------|

2:29

Guitar solo.

G|----------------------------------------------------------------|
D|----------------5-----------------------------------------------|
A|5-----------5-----5---------------------------------------------|
E|--------------------3---3-------2---2-0-2---2-------0---0---5---|
B|----------------------------------------------------------------|

G|----------------------------------------------------------------|
D|----------------5---5---5-------4---4h5-4-----------7---5-4-----|
A|5-----------5---------5-------------------------------------7---|
E|--------------------------------------------5-------------------|
B|----------------------------------------------------------------|

G|----------------------------------------------------------------|
D|----------------------------------------------------------------|
A|5-----------5---------------------------------------4---4-------|
E|----------------3---3---3-------7---7-5-7---7-----5---------5---|
B|----------------------------------------------------------------|

G|----------------------------------------------------------------|
D|----------------------------------------------------------------|
A|5-----------7---------------5-----------7---5-----------4---5---|
E|--------------5-7-------7-------0---------------5---------------|
B|----------------------------------------------------------------|

G|----------------------------------------------------------------|
D|------------5---------------5-----------------------------------|
A|------------------------------5---------------------------------|
E|3-------------------------------3-----------2-----------0-------|
B|----------------------------------------------------------------|

G|----------------------------------------------------------------|
D|----------------------------------------------------------------|
A|----------------------------------------------------------------|
E|----------------------------------------------------------------|
B|3---------------------------------------------------------------|







3:16

G|----------------------------------------------------------------|
D|----------------------------------------------------------------|
A|5---5---5---5---5---5---5---5---3---3---3---2---2---2---3-------|
E|------------------------------------------------------------3---|
B|----------------------------------------------------------------|

3:21

G|----------------------------------------------------------------|
D|----------------------------------------------------------------|
A|5---------/-5-----------5---5---3-----------2-------2---3-------|
E|--------------------5-----5-------------------------------------|
B|----------------------------------------------------------------|

G|----------------------------------------------------------------|
D|----------------------------------------------------------------|
A|5-----------5-------5-------2---3-----------2-------2---3-2-----|
E|------------------5-----5-----------------------------------3---|
B|----------------------------------------------------------------|

G|----------------------------------------------------------------|
D|----------------------------------------------------------------|
A|5-------5-/-10------9---5h7-5---3-----------2-------2---3-2-3---|
E|------5---------------------------------------------------------|
B|----------------------------------------------------------------|

G|----------------------------------------------------------------|
D|----------------------------------------------------------------|
A|5-----------5-------5-------2---3-------------------------------|
E|------------------5-----5---------------------------------------|
B|----------------------------------------------------------------|

G|--------------------------------|
D|--------------------------------|
A|2-------------------------------|
E|--------------------------------|
B|--------------------------------|

3:40

G|----------------------------------------------------------------|
D|----------------------------------------------------------------|
A|------------------------2---3---5-------5---5---5---5---5---5---|
E|5---------------3---------------------------------5-------------|
B|----------------------------------------------------------------|

G|--------------------------------|
D|7-------7-------7-------7-------|
A|--5---5---5---5---5---5---5-----|
E|----------------------------5---|
B|--------------------------------|

3:47

G|----------------------------------------------------------------|
D|----------------------------------------------------------------|
A|--------------------------------7-------7---7-------5---5---3---|
E|3-----------3---/---8---8-------------7-------------------------|
B|----------------------------------------------------------------|

G|----------------------------------------------------------------|
D|----------------------------------------------------------------|
A|--------------------------------7---7---7---7-------5---5-------|
E|3-----------3---/---8---8-------------7---------------------0---|
B|----------------------------------------------------------------|

G|----------------------------------------------------------------|
D|----------------------------------------------------------------|
A|--------------------------------7---7---7---7-------5---5-------|
E|3-----------3---/---8---8-------------7---------------------2---|
B|----------------------------------------------------------------|

G|----------------------------------------------------------------|
D|----------------------------------------------------------------|
A|--------------------------------7-------7---7-------5---5-------|
E|3-----------3-------8---8-------------7---------------------2---|
B|----------------------------------------------------------------|

G|----------------------------------------------------------------|
D|----------------------------------------------------------------|
A|--------------------------------7---7---7---7-------5---5-------|
E|3-----------3---/---8---8-------------7---------------------0---|
B|----------------------------------------------------------------|

G|----------------------------------------------------------------|
D|----------------------------------------------------------------|
A|--------------------------------7---7---7---7-------5-----5-----|
E|3-----------3---/---8---8-------------7-------------------------|
B|----------------------------------------------------------------|

G|----------------------------------------------------------------|
D|----------------------------------------------------------------|
A|--------------------------------7-------7---7-------5---5-------|
E|3-----------3---/---8---8-------------7-------------------------|
B|----------------------------------------------------------------|

G|----------------------------------------------------------------|
D|----------------------------------------------------------------|
A|--------------------------------7---7---7---7-------5-------3---|
E|3-----------3-------8---8-------------7-------------------------|
B|----------------------------------------------------------------|

G|----------------------------------------------------------------|
D|----------------------------------------------------------------|
A|----------------------------------------------------------------| x4 to fadeout.
E|3-----------3---/---8---8---------------------------------------|
B|--------------------------------5---5-0-5---5-------3---3---5---|
Suggest correction
Creating personal tab
Creating personal tab
You can edit any tab online and save it as your Personal.

You can edit, replace or remove any tab part or add personal notes – all changes will be seen only by you.

Personal tabs can be accessed anytime from any device, even offline.
Learn more »
comments
print report bad tab
guest
You may want to rate the tab now too:
select rating
Wanna post a correction for this tab? Suggest correction