Oops, an error
Loading. Please wait.
We have an official More Than A Feeling tab made by UG professional guitarists. Check out the tab »
×

More Than A Feeling tab

version 6
version 6

Whole song

  • This tab comes with a tutorial on youtube. Someone... Show more
  • I have added a new intro, fixed the last section o... Show more
by Boston
115 views 1 this week
2 commentsread comments
1 2 3 4 5
x 3
add to favorites
×
Save as Personal and add changes to this tab that will be seen only by you. Learn more ›
×
You can save this tab as Personal to edit and correct it or add notes. All changes will be seen only by you. Learn more »
launch autoscroll
font size
0
reset
how to read this tab
guitar tuner
backing track
0:00
0:00
edit
Autoscroll
slow
fast
+/-
esc
set tempo
stop
Author
About this tab version
I have added a new intro, fixed the last section of the solo and added a few additions to the transition sections of the song. Was this info helpful? Yes No
Song: More Than a Feeling
Artist: Boston
Tabbed by: Pdiprimo aka SoccerRocker

Hello!  So I have what I think is the correct tab.  There are two guitars for this tab and I have done my best
to include all the parts. Have fun!


  [Intro and Verse]
    Dsus4          D          C                      G
e|------------3---2---------------3----------3----------------|
B|------3-------------3--------------3---------3--------3-----|
G|---------2--------------0-----------------------------------|
D|---0--------------------------------------------------------| 
A|-----------------------------3----------2-------------------|
E|----------------------------------------------------3-------|
   I looked out this morning and the sun was gone,
   Turned on some music to start my day,
   Then lost myself in a familiar song.
   I closed my eyes and I

e|------0----------------------3------------------------------|
B|-----3--3-----------------3----3----3-----------------------|
G|---0-------0---0--------0---0-----0-------------------------|
D|------------------------------------------------------------|
A|-3-----------3-------2--------------------------------------|
E|------------------------------------------------------------|
   slipped away...
 
[Pre-chorus]

  Am            Am/G bass     D
e|-------------------------------------------------3----------|
B|------------1-------------1-------3--------3-----3----------|
G|---------2-------------2--------2---2----2---2---0----------|
D|------2-------------2----------0-------0---------0----------|
A|---0---------------------------------------------2----------|
E|-----------------3-------------------------------3----------|

e|------------------------------------------------------------|
b|---13---12 12b14b10--10------------13-12-10h12p10-----------|
G|---------------------------------------------------12-------|
D|------------------------------------------------------------|
A|------------------------------------------------------------|
E|------------------------------------------------------------|



    G5           C5       E5                D5
IT'S MORE THAN A FEELING (MORE THAN A FEEL-ING)
         G5           C5         E5            D5
WHEN I HEAR THAT OLD SONG THEY USED TO PLAY. 
   G5           C5       E5          D5
AND I BEGIN DREAMING (MORE THAN A FEELING)

       G5            C5      Eb5
'Til I see Marianne walk a-way,

(This part is a bit difficult to play, take your time and you will get it!)
 
e|---0--0----0---0---0-------3--3----3--2---0---2---------------|
B|---3--3----3---2---0---2---3--3----3--3---0---3---------------|
G|---0--0----0---2---2---2---0--0----0--2---0---2---------------|
D|---2--2----2---2---2---2---0--0----0--0---2---0---------------|
A|---2--2----2---------------2--2----2------2-------------------|
E|---0--0--------------------3--3----3--2---0-------------------|
  I see my Marianne walking away.


 


[Chorus Before Solo]

    G5           C5       E5                D5
IT'S MORE THAN A FEELING (MORE THAN A FEEL-ING)
         G5           C5         E5            D5
WHEN I HEAR THAT OLD SONG THEY USED TO PLAY. 
   G5           C5       E5          D5
AND I BEGIN DREAMING (MORE THAN A FEELING)
       G5            C5      Eb5
'Til I see Marianne walk a-way,

Em7        Asus4 A  Bm  Bm/A G D/F# Asus4 A
 I see my Marianne walking away.

e|---0--0----0---0---0----------------------------------------------------------------------|
B|---3--3----3---2---0---2------------------------------------------------------------------|
G|---0--0----0---2---2---2--4-4-4-4-4-4-4-4-----------------2-2-2-2-2-2-2-2-2-2-2-2-2-2-2-2-|
D|---2--2----2---2---2---2--4-4-4-4-4-4-4-4-5-5-5-5-2-2-2-2-2-2-2-2-2-2-2-2-2-2-2-2-2-2-2-2-|
A|---2--2----2--------------2-2-2-2-0-0-0-0-5-5-5-5-2-2-2-2-0-0-0-0-0-0-0-0-0-0-0-0-0-0-0-0-|
E|---0--0-----------------------------------3-3-3-3-0-0-0-0---------------------------------|
  I see my Marianne walking away.

Solo

e|----------------------------------------------------------|
b|-------7-7-8-7h8p7---10-8-7h8p7-----7-8-7h8p7---7---------|
G|--6-7-9-----------9-7--7-------9-7-9-7-------9-7-9-7-6----|
D|-------------------------------------------------------7--|
A|----------------------------------------------------------|
E|----------------------------------------------------------|


e|--------------10-10-9-7h9p7---------------------------------10-9-7--19-|
B|7-7-8-7h8p7----------------10-8-7-8-7h8p7-------7-5h7p5----------------|
G|-----------9-7-------------------7-------9-7-9-7-------7-6-7-----------|
D|-----------------------------------------------------------------------|
A|-----------------------------------------------------------------------|
E|-----------------------------------------------------------------------|

   G    D/F#  Em   D
e|-3-----2---0---2---------------|
B|-3-----3---0---3---------------|
G|-0-----2---0---2---------------|
D|-0-----0---2---0---------------|
A|-2---------2-------------------|
E|-3-----2---0-------------------|

h = hammer-on
p = pull-off

            
            
Suggest correction
Creating personal tab
Creating personal tab
You can edit any tab online and save it as your Personal.

You can edit, replace or remove any tab part or add personal notes – all changes will be seen only by you.

Personal tabs can be accessed anytime from any device, even offline.
Learn more »
Give kudos to tab author, rate the tab!
1 2 3 4 5
comments
print report bad tab
2 comments total.
0 reply
snowboundsix1 20 Jul 13, 2017 06:37 PM

Good Job! Way less confusing and it's actually complete!

guest
You may want to rate the tab now too:
select rating
Wanna post a correction for this tab? Suggest correction