Oops, an error
Loading. Please wait.
We have an official Peace Of Mind tab made by UG professional guitarists. Check out the tab »
×

Peace Of Mind intro tab

version 3
version 3

Intro

  • This is my first attempt at tabbing something. I f... Show more

Whole song

Interactive

by Boston
193 views 3 this week
5 commentsread comments
1 2 3 4 5
2 more votes to show rating
add to favorites
×
Save as Personal and add changes to this tab that will be seen only by you. Learn more ›
×
You can save this tab as Personal to edit and correct it or add notes. All changes will be seen only by you. Learn more »
launch autoscroll
font size
0
reset
how to read this tab
guitar tuner
backing track
0:00
0:00
edit
Autoscroll
slow
fast
+/-
esc
set tempo
stop
Author
Difficulty
About this tab version
This is my first attempt at tabbing something. I feel like I did a pretty good job it's sound pretty good to me. I'd love to hear what other people think about it. I've been working on the rest of the song as well but this intro sounds solid to me so I"m posting to see what other think about it. Was this info helpful? Yes No
[Intro]
e|---------------------------------------------------------------------------|
B|---------------------------------------------------------------------------|
G|---------------------------------------------------------------------------|
D|---------------------------------------------------------------------------|
A|---11----9----7----4----4~----4----6----7----7/9----6----7----6------------|
E|-------------------------------------------------------------------7-------|

e|---------------------------------------------------------------------------|
B|---------------------------------------------------------------------------|
G|---------------------------------------------------------------------------|
D|--------------------4----6----7----4----6----4h6p4-------------------------|
A|---4~----4~----7--------------------------------------7----4~----4~--------|
E|---------------------------------------------------------------------------|

e|---------------------------------------------------------------------------|
B|---------------------------------------------------------------------------|
G|---------------------------------------------------------------------------|
D|--------------------------------------------------------------4----6-------|
A|---4----6----7----7/9----6----7----6---------4~----4~----7-----------------|
E|----------------------------------------7----------------------------------|

e|---------------------------------------------------------------------------|
B|---------------------------------------------------------------------------|
G|---------------------------------------------------------------------------|
D|----7----4----6----4h6p4---------------------------------------------------|
A|----------------------------7----7~----------------------------------------|
E|---------------------------------------------------------------------------|

************************************

| /  Slide up
| ~  Vibrato
| h  Hammer-on
| p  Pull-off

************************************

            
            
Suggest correction
Creating personal tab
Creating personal tab
You can edit any tab online and save it as your Personal.

You can edit, replace or remove any tab part or add personal notes – all changes will be seen only by you.

Personal tabs can be accessed anytime from any device, even offline.
Learn more »
Give kudos to tab author, rate the tab!
1 2 3 4 5
comments
print report bad tab
5 comments total. Showing first comments.
+1 reply
zr195.ms 20 Dec 07, 2016 07:05 PM

This is a really good yiff!

+1 reply
zr195.ms 20 Dec 07, 2016 07:06 PM

oh my bad I ment riff! hehe

+1 reply
scoobuhsteve 20 Jan 09, 2017 07:30 AM

Very, very nice for your first post.
Keep up the good work!!

guest
You may want to rate the tab now too:
select rating
Wanna post a correction for this tab? Suggest correction