Oops, an error
Loading. Please wait.
We have an official Rock And Roll Band tab made by UG professional guitarists. Check out the tab »
×
by Boston
97 views 1 this week
no commentswrite comment
1 2 3 4 5
1 last vote to show rating
add to favorites
×
Save as Personal and add changes to this tab that will be seen only by you. Learn more ›
×
You can save this tab as Personal to edit and correct it or add notes. All changes will be seen only by you. Learn more »
launch autoscroll
font size
0
reset
guitar tuner
backing track
0:00
0:00
edit
Autoscroll
slow
fast
+/-
esc
set tempo
stop
Author
Difficulty
Title: Rock And Roll Band
Artist: Boston
Album: Boston
Tuning: Standard (E A D G)
Tab Author: Pearce Hamblin (The Bass Diaries)

  [Intro]
G|--------|---------------------------------|---------------------------------|
D|--------|---------------------------------|---------------------------------|
A|--------|---------------------------------|-2-------------------------------|
E|--------|-------------------------7\\\3---|---------------------------------|


G|---------------------------------|---------------------------------|-----------------------------------|
D|---------------------------------|---------------------------------|-----------------8///9-------------|
A|-----------------7---7---5---4---|-2-------------------------------|-------------------------7--8--9---|
E|---------------------------------|---------------------------------|-----------------------------------|

                                                                        [Verse 1]
G|---------------------------------|-----------------------------------|---------------------------------|
D|---------------------------------|-----------------------------------|-----------------2---------------|
A|---------------------------------|-6---6---7--6--7---8---9-----------|-----------------------------0---|
E|-7---7---7---7---7---7---7---7---|---------------------------7---0---|-----0---3---4-------3---4-------|


G|---------------------------------|---------------------------------|---------------------------------|
D|---------------------------------|-----------------2---------------|---------------------------------|
A|-----0---3---4---0---------------|-----------------------------0---|-----0---3---4---0---------------|
E|---------------------3---4---0---|-----0---3---4-------3---4-------|---------------------3---4---0---|


G|---------------------------------|---------------------------------|---------------------------------|
D|-----------------2---------------|---------------------------------|-----------------2---------------|
A|-----------------------------0---|-----0---3---4---0---------------|-----------------------------0---|
E|-----0---3---4-------3---4-------|---------------------3---4---0---|-----0---3---4-------3---4-------|


G|-----------------------------------|---------------------------------|---------------------------------|
D|--------------------0---0--1---2---|-----------------2---------------|---------------------------------|
A|-----0---3---4---0-----------------|-----------------------------0---|-----0---3---4---0---------------|
E|-----------------------------------|-----0---3---4-------3---4-------|---------------------3---4---0---|


G|---------------------------------|---------------------------------|---------------------------------|
D|-----------------2---------------|---------------------------------|-----------------2---------------|
A|-----------------------------0---|-----0---3---4---0---------------|---------------------------------|
E|-----0---3---4-------3---4-------|---------------------3---4---0---|-----0---3---4-------3---4---2---|


G|-----------------------------------|---------------------------------|---------------------------------|
D|-------------------4---------------|---------------------------------|---------------------------------|
A|---------------4-------6---4---0---|-----0---0---0---0---0---0-------|-2-------------------------------|
E|-----2---4--6----------------------|-----------------------------0---|---------------------------------|

  [Chorus 1]
G|-----------------------------------|---------------------------------|---------------------1-------------|
D|-----------------------------------|---------------------------------|-------------------------4--2--1---|
A|-4-----------4-------2---4--2------|-0-----------7---------------6---|-4-----------4---------------------|
E|---------4---------------------4---|---------5-----------5---7-------|---------4-------------------------|


G|---------------------------------|---------1---1---2--1--------------|---------------------------------|
D|-----------------------------1---|-2---2-----------------2---3---4---|-----4---2---1-------------------|
A|-0-----------0-------0---2-------|-----------------------------------|-----------------------------0---|
E|---------0-----------------------|-----------------------------------|-----------------2---3---4-------|


G|---------------------------------|-----------------------------------|---------------------------------|
D|-------------------------1---2---|-----2-------------------------2---|---------------------------------|
A|-----0---1---2-------2-----------|---------4---2---------2---4-------|---------------------------------|
E|---------------------------------|-----------------3--4--------------|-0---------------------------0---|

  [Verse 2]
G|---------------------------------|---------------------------------|---------------------------------|
D|-----------------2---------------|---------------------------------|-----------------2---------------|
A|-----------------------------0---|-----0---3---4---0---------------|-----------------------------0---|
E|-----0---3---4-------3---4-------|---------------------3---4---0---|-----0---3---4-------3---4-------|


G|---------------------------------|---------------------------------|---------------------------------|
D|---------------------------------|-----------------2---------------|---------------------------------|
A|-----0---3---4---0---------------|-----------------------------0---|-----0---3---4---0---------------|
E|---------------------3---4---0---|-----0---3---4-------3---4-------|---------------------3---4---0---|


G|---------------------------------|-----------------------------------|---------------------------------|
D|-----------------2---------------|--------------------0---0--1---2---|-----------------2---------------|
A|-----------------------------0---|-----0---3---4---0-----------------|-----------------------------0---|
E|-----0---3---4-------3---4-------|-----------------------------------|-----0---3---4-------3---4-------|


G|---------------------------------|---------------------------------|---------------------------------|
D|---------------------------------|-----------------2---------------|---------------------------------|
A|-----0---3---4---0---------------|-----------------------------0---|-----0---3---4---0---------------|
E|---------------------3---4---0---|-----0---3---4-------3---4-------|---------------------3---4---0---|


G|---------------------------------|-----------------------------------|---------------------------------|
D|-----------------2---------------|-------------------4---------------|---------------------------------|
A|---------------------------------|---------------4-------6---4---0---|-0---0---0---0---0---0---0-------|
E|-----0---3---4-------3---4---2---|-----2---4//6----------------------|-----------------------------0---|

                                    [Chorus 2]
G|---------------------------------|-----------------------------------|---------------------------------|
D|---------------------------------|---------------------2-------------|---------------------------------|
A|-2-------------------------------|-4-----------4-----------4--2------|-0-----------7---------------6---|
E|---------------------------------|---------4---------------------4---|---------5-----------5---7-------|


G|---------------------1-------------|---------------------------------|---------1---1---2--1--------------|
D|-------------------------4--2--1---|-----------------------------1---|-2---2-----------------2---3---4---|
A|-4-----------4---------------------|-0-----------0-------0---2-------|-----------------------------------|
E|---------4-------------------------|---------0-----------------------|-----------------------------------|


G|---------------------------------|---------------------------------|---------------------------------|
D|-----4---2---2-------------------|---------------------------------|---------------------------------|
A|-----------------------------0---|-----0---1---2-------0-----------|-----------------0---0---1---2---|
E|-----------------2---3---4-------|-------------------------4---0---|-----0---4---4-------------------|

                                    [Solo]
G|---------1---1---2---3---4---6---|-------------------------------------|---------------------------------|
D|-2---2---------------------------|-4-------4---------4---------2---4---|-----4-----------------------2---|
A|---------------------------------|----------------4------2--4----------|---------1---1---2---2---4-------|
E|---------------------------------|-------------------------------------|---------------------------------|


G|-------------------------------------|---------------------------------|-----------------------------------|
D|-4-------4---------4---2-------------|---------4-----------------------|-4-------4---------4-------2---4---|
A|----------------4---------4--2-------|-------------0---1---1---2---4---|----------------4------4-----------|
E|---------------------------------2---|-----2---------------------------|-----------------------------------|


G|---------------------------------|---------------------------------|---------------------------------|
D|-----4---2---2---1---1-----------|-----------------0---0---1---2---|---------1---2-------------------|
A|-------------------------4---2---|-0---0---4---4-------------------|-2---2-----------2---0-----------|
E|---------------------------------|---------------------------------|-------------------------4---0---|

  [Verse 3]
G|---------------------------------|---------------------------------|---------------------------------|
D|-----------------2---------------|---------------------------------|-----------------2---------------|
A|-----------------------------0---|-----0---3---4---0---------------|-----------------------------0---|
E|-----0---3---4-------3---4-------|---------------------3---4---0---|-----0---3---4-------3---4-------|


G|---------------------------------|---------------------------------|---------------------------------|
D|---------------------------------|-----------------2---------------|---------------------------------|
A|-----0---3---4---0---------------|-----------------------------0---|-----0---3---4---0---------------|
E|---------------------3---4---0---|-----0---3---4-------3---4-------|---------------------3---4---0---|


G|---------------------------------|-----------------------------------|---------------------------------|
D|-----------------2---------------|--------------------0---0--1---2---|-----------------2---------------|
A|-----------------------------0---|-----0---3---4---0-----------------|-----------------------------0---|
E|-----0---3---4-------3---4-------|-----------------------------------|-----0---3---4-------3---4-------|


G|---------------------------------|---------------------------------|---------------------------------|
D|---------------------------------|-----------------2---------------|---------------------------------|
A|-----0---3---4---0---------------|-----------------------------0---|-----0---3---4---0---------------|
E|---------------------3---4---0---|-----0---3---4-------3---4-------|---------------------3---4---0---|


G|---------------------------------|-----------------------------------|---------------------------------|
D|-----------------2---------------|-------------------4---------------|---------------------------------|
A|-----------------------------0---|---------------4-------6---4---0---|-----0---0---0---0---0---0---0---|
E|-----0---3---4-------3---4-------|-----2---4//6----------------------|---------------------------------|

                                    [Chorus 3]
G|---------------------------------|-----------------------------------|---------------------------------|
D|---------------------------------|-----------------------------------|-------------2---------------1---|
A|-2-------------------------------|-4-----------4-------2---4--2------|-0-------0-----------0---2-------|
E|---------------------------------|---------4---------------------4---|---------------------------------|


G|-----------------------------1---|---------------2-------------4---------|---------------------------------|
D|---------------------1---2-------|---------1--2----------4--6-----6--4---|-2---------------2-----------4---|
A|-4-----------4-------------------|-0-------------------------------------|---------4---2-------4---2-------|
E|---------4-----------------------|---------------------------------------|---------------------------------|


G|---------------------0---1---2---|-----2---3---4-------4---1-------|---------------------------------|
D|-----4-------1---4---------------|-----------------------------2---|-----2-----------2-----------4---|
A|---------4-----------------------|---------------------------------|---------4---2-------4---2-------|
E|---------------------------------|---------------------------------|---------------------------------|

                                    [Outro]
G|---------------------------------|---------------------------------|---------------------------------|
D|-----4---1-----------------------|---------------------------------|-----------------------------2---|
A|-------------4---------------0---|-----0-------2-------2-----------|-------------0-------0---4-------|
E|-----------------2---3---4-------|---------0---------------0---3---|-----3---0-----------------------|


G|---------------------------------|---------------------------------|---------------------------------|
D|-----2-----------2---------------|---------------------------------|-----------------2---------------|
A|-----------------------------0---|-----0---3---4---0---------------|-----------------------------0---|
E|---------3---4-------3---4-------|---------------------3-------0---|-----0---3---4-------3---4-------|


G|--------------------------------------|---------------------------------|---------------------------------|
D|--------------------------------------|-----------------2-----------0---|---------------------------------|
A|-----0---3---4---0--3--0--------------|---------------------------------|-------------0-------------------|
E|--------------------------3-------0---|-----0---3---4-------3---0-------|---------------------------------|


G|---------------------------------|--------|--------|
D|---------------------------------|--------|--------|
A|---------------------------------|--------|--------|
E|-0-------------------------------|--------|--------|


***********************************
| \   Slide down
| /   Slide up
***********************************
Suggest correction
Creating personal tab
Creating personal tab
You can edit any tab online and save it as your Personal.

You can edit, replace or remove any tab part or add personal notes – all changes will be seen only by you.

Personal tabs can be accessed anytime from any device, even offline.
Learn more »
Give kudos to tab author, rate the tab!
1 2 3 4 5
comments
print report bad tab
guest
You may want to rate the tab now too:
select rating
Wanna post a correction for this tab? Suggest correction