Oops, an error
Loading. Please wait.

Lead Feet Tab

19 views 19 this week
no commentswrite comment
1 2 3 4 5
3 more votes to show rating
add to favorites
launch autoscroll
font size
0
reset
how to read this tab
guitar tuner
Autoscroll
slow
fast
+/-
esc
set tempo
stop
Help us to improve Ultimate-Guitar.com Take our survey!
×
Author
Tuning
D A D G B E
Artist - Boston Manor
Album - Be Nothing.
Track - Lead Feet
Tuning - Drop D (DADGBe)

Intro (bass only to start)
e|-------------------------------|-----------------------------------|
B|-------------------------------|-----------------------------------|
G|-5-5-5-5-5-3-5-5-5-5-5-5-5-5-5-|-12-12-12-3-3-3-10-10-10-3-3-3-7br-|
D|-x-x-x-x-x-x-x-x-x-x-x-x-x-x-x-|-x--x--x--x-x-x-x--x--x--x-x-x-x---|
A|-3-3-3-3-3-1-3-3-3-3-3-3-3-3-3-|-10-10-10-1-1-1-8--8--8--1-1-1-5br-|
D|-------------------------------|-----------------------------------|

e|-------------------------------|------------------------------------------------|
B|-------------------------------|------------------------------------------------|
G|-5-5-5-5-5-3-5-5-5-5-5-5-5-5-5-|-12-12-12-12-12-12-12-12-10-10-10-10-10-10-10-10|
D|-x-x-x-x-x-x-x-x-x-x-x-x-x-x-x-|-x--x--x--x--x--x--x--x--x--x--x--x--x--x--x--x-|
A|-3-3-3-3-3-1-3-3-3-3-3-3-3-3-3-|-10-10-10-10-10-10-10-10-8--8--8--8--8--8--8--8-|
D|-------------------------------|------------------------------------------------|

Verse 1
e|-----6-------6-------6-------6--|-----3-------3-------3-------3--|
B|---4---4---4---4---4---4---4---4|---4---4---4---4---4---4---4---4|
G|-5-------5-------5-------5------|-3-------3-------3-------3------|
D|--------------------------------|--------------------------------|x4
A|--------------------------------|--------------------------------|
D|--------------------------------|--------------------------------|

Chorus
e|--------------------------------|--------------------------------|
B|--------------------------------|--------------------------------|
G|-7---7-7-7-7-7---8---8-8-8-8-8--|--------------------------------|
D|-x---x-x-x-x-x---x---x-x-x-x-x--|-6-6-6-6-6-6-6-6-6-6-6-6-6-6-6-6|x2
A|-5---5-5-5-5-5---6---6-6-6-6-6--|-6-6-6-6-6-6-6-6-6-6-6-6-6-6-6-6|
D|--------------------------------|-6-6-6-6-6-6-6-6-6-6-6-6-6-6-6-6|

e|-------6-------3---|
B|-------------------|
G|-5\3/5-----3/5-----|
D|-------------------|
A|-------------------|
D|-------------------|

Post-chorus
e|--------------------------------|--------------------------------|
B|--------------------------------|--------------------------------|
G|--------------------------------|--------------------------------|
D|-5---5---5-------5---5---5------|--------------------------------|
A|-3---3---3-1-1-1-3---3---3-1-1-1|-3---3---3-1-1-1-6---6---6-8-8-8|
D|-----------1-1-1-----------1-1-1|-3---3---3-1-1-1-6---6---6-8-8-8|

e|--------------------------------|--------------------------------|
B|--------------------------------|--------------------------------|
G|--------------------------------|--------------------------------|
D|-5---5---5-------5---5---5------|-8---8---8-8-8-8----------------|
A|-3---3---3-1-1-1-3---3---3-1-1-1|-6---6---6-6-6-6-8-8-8-8-8-8-8-8|
D|-----------1-1-1-----------1-1-1|-----------------8-8-8-8-8-8-8-8|

Verse 2
e|-------6-------3----------------|
B|-----------------------4--------|
G|-5\3/5-----3/5-----5-------5----|
D|--------------------------------|x4
A|--------------------------------|
D|--------------------------------|

Chorus
e|--------------------------------|--------------------------------|
B|--------------------------------|--------------------------------|
G|-7---7-7-7-7-7---8---8-8-8-8-8--|--------------------------------|
D|-x---x-x-x-x-x---x---x-x-x-x-x--|-6-6-6-6-6-6-6-6-6-6-6-6-6-6-6-6|x4
A|-5---5-5-5-5-5---6---6-6-6-6-6--|-6-6-6-6-6-6-6-6-6-6-6-6-6-6-6-6|
D|--------------------------------|-6-6-6-6-6-6-6-6-6-6-6-6-6-6-6-6|

Bridge
e|-----------------------------|----------------------------|
B|-----------------------------|----------------------------|
G|-7-7-7-8-8-8-5-5-5-5-5-5-5-5-|-3-3-3-0-0-0-7-7-7-7-7-7-7-7|
D|-----------------------------|----------------------------|x2
A|-----------------------------|----------------------------|
D|-----------------------------|----------------------------|

e|---------------------------------|-----------------------------------------------|
B|---------------------------------|-----------------------------------------------|
G|-8-8-8-8-8-8-8-8-1010101010101010|12-12-12-12-12-12-12-12-12-12-15-15-15-15-15-15|
D|-x-x-x-x-x-x-x-x-x-x-x-x-x-x-x-x-|x--x--x--x--x--x--x--x--x--x--x--x--x--x--x--x-|
A|-6-6-6-6-6-6-6-6-8-8-8-8-8-8-8-8-|10-10-10-10-10-10-10-10-10-10-13-13-13-13-13-13|
D|---------------------------------|-----------------------------------------------|

e|-----------------10-10-10-10-10-10-10-10|-11-11-11-11-11-11-11-11-13-13-13-13-13-13-13-13|
B|----------------------------------------|------------------------------------------------|
G|-8-8-8-8-8-8-8-8------------------------|------------------------------------------------|
D|-x-x-x-x-x-x-x-x------------------------|------------------------------------------------|
A|-6-6-6-6-6-6-6-6------------------------|------------------------------------------------|
D|----------------------------------------|------------------------------------------------|

Chorus
e|-----6-------6-------6-------6--|-----3-------3-------3-------3--|
B|---4---4---4---4---4---4---4---4|---4---4---4---4---4---4---4---4|
G|-5-------5-------5-------5------|-3-------3-------3-------3------|
D|--------------------------------|--------------------------------|x2
A|--------------------------------|--------------------------------|
D|--------------------------------|--------------------------------|

e|--------------------------------|--------------------------------|
B|--------------------------------|--------------------------------|
G|-7---7--------------------------|--------------------------------|
D|-x---x--------------------------|-6-6-6-6-6-6-6-6-6-6-6-6-6-6-6-6|
A|-5---5--------------------------|-6-6-6-6-6-6-6-6-6-6-6-6-6-6-6-6|
D|--------------------------------|-6-6-6-6-6-6-6-6-6-6-6-6-6-6-6-6|

e|--------------------------------|--------------------------------|
B|--------------------------------|--------------------------------|
G|-7---7-7-7-7-7---8---8-8-8-8-8--|--------------------------------|
D|-x---x-x-x-x-x---x---x-x-x-x-x--|-6-6-6-6-6-6-6-6-6-6-6-6-6-6-6-6|x3
A|-5---5-5-5-5-5---6---6-6-6-6-6--|-6-6-6-6-6-6-6-6-6-6-6-6-6-6-6-6|
D|--------------------------------|-6-6-6-6-6-6-6-6-6-6-6-6-6-6-6-6|

Outro
e|-------------------------------|-----------------------------------|
B|-------------------------------|-----------------------------------|
G|-------------------------------|-12-12-12-3-3-3-10-10-10-3-3-3-7br-|
D|-5-5-5-5-5-3-5-5-5-5-5-5-5-5---|-x--x--x--x-x-x-x--x--x--x-x-x-x---|
A|-3-3-3-3-3-1-3-3-3-3-3-3-3-3---|-10-10-10-1-1-1-8--8--8--1-1-1-5br-|
D|-------------------------------|-----------------------------------|

e|------------3-------------------|--------------------------------|
B|-------4---------------4--------|--------------------------------|
G|-3h5------5-------5--------5----|--------------------------------|
D|--------------------------------|--------------------------------|
A|--------------------------------|-6-6-6-6-6-6-6-6-8-8-8-8-8-8-8-8|
D|--------------------------------|-6-6-6-6-6-6-6-6-8-8-8-8-8-8-8-8|

e|------------3-------------------|--------------------------------|
B|-------4---------------4--------|------4--4----------3---4p3---3-|
G|-3h5------5-------5--------5----|-3h5--------5-3---3---3-----3---|
D|--------------------------------|--------------------------------|x2
A|--------------------------------|--------------------------------|
D|--------------------------------|--------------------------------|
Suggest correction
Give kudos to tab author, rate the tab!
1 2 3 4 5
comments
print report bad tab
guest
You may want to rate the tab now too:
select rating
Wanna post a correction for this tab? Suggest correction