Oops, an error
Loading. Please wait.

Japam bass

by Botch
1,381 views 3 this week
1 commentread comment
1 2 3 4 5
3 more votes to show rating
add to favorites
×
Save as Personal and add changes to this tab that will be seen only by you. Learn more ›
×
You can save this tab as Personal to edit and correct it or add notes. All changes will be seen only by you. Learn more »
launch autoscroll
font size
0
reset
guitar tuner
edit
Autoscroll
slow
fast
+/-
esc
set tempo
stop
Band name: Botch
Song name: japam
From the album: An Anthology of Dead Ends
Tabber: Hames

Riff 1:
G-------------------|
D-----2h3p2---------|       (x4)
A-1-----------0h2p0-|
D-----------3-------|

Riff 2:
G-----------|
D-----------|         (x4)
A-----4-5---|
D-4-3-----5-|

Riff 3:
G---------|
D---------|
A---0h2p0-|        (x8)
D-3-------|

Then play Riff 2(x4), Riff 3(x8) and Riff 1(x4). Followed by:

Riff 4:
G---------------------------------------------------------------------|
D---------------------------------------------------------------------|   (x2)
A---------------------------------------------------------------------|
D-3-3-3-------6-6---------5-5-5---------3-3---------6-6-6---------5-5-|

Riff 5:
G----------------|
D----------------|
A----------------|
D-2~------4-5/1~-|

Then play Riff 4(x4) and Riff 5 once. Then:

Riff 6:
G----------------------------------------------|
D----------------------------------------------|
A------------------/18181818181818181818181818-|
D-1-111111111111111----------------------------|

Riff 6:
G-----------------------|
D-----------------------|      (x4, but on the fourth rep. end with
A-----------------------|            an extra '3' on low 'D')
D-3-------6-------5-----|

Riff 7:
G-------------------------------------|
D-------6-6-6-------5-5-5-------3-3-3-|       (x4)
A-------------------------------------|
D-3-3-3-------6-6-6-------5-5-5-------|

Riff 8:
G------------------------------|
D------------------------------|
A---18-18/----18-18/----18-18/-|       (x4)
D-3---------6---------5--------|

Then play Riff 7(x4) and Riff 8(x8) ending on an extra '3' on low 'D'. Song ends.

            
            
Suggest correction
Creating personal tab
Creating personal tab
You can edit any tab online and save it as your Personal.

You can edit, replace or remove any tab part or add personal notes – all changes will be seen only by you.

Personal tabs can be accessed anytime from any device, even offline.
Learn more »
Give kudos to tab author, rate the tab!
1 2 3 4 5
comments
print report bad tab
1 comment total.
0 reply
jackley777 10 Jul 24, 2009 11:13 AM

Sweet tab. Is there any chance that you could tab out the guitar for this song?

guest
You may want to rate the tab now too:
select rating
Wanna post a correction for this tab? Suggest correction