Oops, an error
Loading. Please wait.

O Fortuna Bass

version 1
version 1

Whole song

by Botch
3,104 views 1 this week
2 commentsread comments
1 2 3 4 5
x 3
add to favorites
×
Save as Personal and add changes to this tab that will be seen only by you. Learn more ›
×
You can save this tab as Personal to edit and correct it or add notes. All changes will be seen only by you. Learn more »
save as personal
new!
launch autoscroll
font size
0
reset
guitar tuner
Autoscroll
slow
fast
+/-
esc
set tempo
stop
Author
Unregistered
first verse
-----------------------------------------------
-10-10-9-9----10-10-9-9----10-10-9-9-10-12-10-9    
-----------------------------------------------
-----------------------------------------------

second verse
-10-10-8-8---10-10-8-8----10-10-8-10-11-10-8
--------------------------------------------      
--------------------------------------------
--------------------------------------------

end verse
--------------------
-10-10-9-9--LET-RIng
--------------------
--------------------

------------------------------------------
------------------------------------------
------------------------------------------
-6-6-5-5----6-6-5-5----6-6-5-6-8-6-5------

    
-----------------------------------------------
-----------------------------------------------
-5-5-3-3----5-5-3-3----5-5-3-5-6-5-3----6-6-5-5
-----------------------------------------------


--------
--------
-6-6-5-5
--------


-------------------------------------
-------------------------------------
-8-8-7-7----8-8-7-7----8-8-7-8-10-8-7
-------------------------------------


-----------------------------------------------
-7-7-5-5----7-7-5-5----7-7-5-7-8-7-5----8-8-7-7
-----------------------------------------------
-----------------------------------------------


--------
-8-8-7-7
--------
--------





-------------------------------------
-8-8-7-7----8-8-7-7----8-8-7-8-10-8-7
-------------------------------------
-------------------------------------


-7-7-5-5----7-7-5-5----7-7-5-7-8-7-5----8-8-7-7
-----------------------------------------------
-----------------------------------------------
-----------------------------------------------


-8-8-7-7
--------
--------
--------


I'm still a beginner and I took my time to tab this song. It might be wrong or it might be right.
Suggest correction
Give kudos to tab author, rate the tab!
1 2 3 4 5
comments
print report bad tab
2 comments total.
0 reply
fweddy despair 10 Aug 30, 2008 11:31 AM

Good tab mate, but i don't think the first verse sounds right.
I think it's:

first verse
-----------------------------------------------
-10-10-9-9----10-10-9-9----10-10-9-10-12-10-9
-----------------------------------------------
-----------------------------------------------

0 reply
FluidViscoscity 10 Nov 02, 2010 09:38 PM

Hey bro pretty good job, but the song is in D so i would play it like this:

-----10-10-9-9----10-10-9-9----10-10-9-10---12--12p10-9
--0-------------0------------0-------------------------
----------------------------------------------------
-------------------------------------------------------

the D root notes are to imitate the timpani, I think they add depths to it. Just need to convert everything into D but the notes are right.
Cheers

guest
Wanna post a correction for this tab? Suggest correction