Oops, an error
Loading. Please wait.

In The Yard chords

1,529 views 1 this week
2 commentsread comments
1 2 3 4 5
x 3
add to favorites
×
Save as Personal and add changes to this tab that will be seen only by you. Learn more ›
×
You can save this tab as Personal to edit and correct it or add notes. All changes will be seen only by you. Learn more »
launch autoscroll
font size
0
reset
transpose
0
reset
display chords
guitar tuner
edit
Autoscroll
slow
fast
+/-
esc
set tempo
stop
Strumming
There is no strumming pattern for this song yet. and get +5 IQ
When listening to the song, the chords are slightly off-beat with the words, which 
is why a lot of them are displayed between the words themselves. During the 
chorus, the strumming pattern differs slightly here, sort of like going from 3/4 
time to 6/8 time, but listening to the song as you play will help you figure it 
out. Also, I like playing this song with a capo on the 5th fret, but it still 
sounds fine without it. :)

Intro: F  C  G x2

Verse:
               F                    C            G
   Last night I dreamed we'd found a stand of trees 
             F          Am       G
   framing a pond and a field in between
             Dm            Am                 G               
   And with a hammer and a blade and our four hands 
                  F      E
   here's what we made

              F           C           G                           
   The logs we peeled and stacked in a ring
               F                   Am             G               
   and then we crowned it, our tiny house, with tin 
             Dm             Am               G            F          
   And by the fire, flickering bronze and gold across your face 
              E      G                                               
   I heard you say

Chorus:
              C            F                             G        
   It may not be a grand parade of snow capped peaks, oooh 
          C        F                           G                  
   no river silver-backed crashing through, oooh 
                   C            F             Em                   
   but we have our black-haired babes running free 
               Dm       G                                         
   through the woods, oooo

Solo (same as verse):
   F  C  G
   F  Am  G
   Dm  Am  G  F  E

Verse:
   F                         C            G                    
   Squirrels in the rafters, wrens in the eaves 
       F                            Am               G             
   red dirt neath our nails, orange stains on our knees 
   Dm              Am            G             F          E     G      
   blackberries in June down the path without our shoes
   
Chorus:
              C            F                             G        
   It may not be a grand parade of snow capped peaks, oooh 
          C        F                           G                  
   no river silver-backed crashing through, oooh 
                   C            F             Em                   
   but we have our black-haired babes running free 
               Dm       G                                         
   through the woods, oooo

Outro:
   F  C  G
   F  Am  G
   (repeat until end)
   F

            
            
Suggest correction
Creating personal tab
Creating personal tab
You can edit any tab online and save it as your Personal.

You can edit, replace or remove any tab part or add personal notes – all changes will be seen only by you.

Personal tabs can be accessed anytime from any device, even offline.
Learn more »
Give kudos to tab author, rate the tab!
1 2 3 4 5
comments
print report bad tab
2 comments total.
0 reply
andiemusik 12 Dec 28, 2014 02:58 PM, edited at 07:59 pm

.

0 reply
andiemusik 12 Dec 28, 2014 02:59 PM

F              C            G            F 
e|-----------------------------3-------------------3-----3--h5---------------|
B|----5--h3--------------5--3---------5--3------------5--------------3--5----|
G|-----------5--2---------------------------4-------------------5------------|
D|---------------------------------------------------------------------------|
A|---------------------------------------------------------------------------|
E|---------------------------------------------------------------------------|

Am G Dm Am G
e|----3---------------------------8------------------------------------------|
B|---------5--3------------8--10-------8--10--8-------8--10------8-----------|
G|---------------5--4----------------------------9-----------10-----9--7-----|
D|---------------------------------------------------------------------------|
A|---------------------------------------------------------------------------|
E|---------------------------------------------------------------------------|

F E
e|---------------------------------|
B|---------------------------------|
G|---------------------------------|
D|----10--9h10p9------10--9--------|
A|---------------------------------|
E|---------------------------------|

guest
You may want to rate the tab now too:
select rating
Wanna post a correction for this tab? Suggest correction