Oops, an error
Loading. Please wait.

1985 Tab

version 1
153,615 views 195 this week
39 commentsread comments
1 2 3 4 5
accurate
x 77
add to favorites
launch autoscroll
font size
0
reset
how to read this tab
guitar tuner
Autoscroll
slow
fast
+/-
esc
set tempo
stop
Help us to improve Ultimate-Guitar.com Take our survey!
×
Author
this songs of bowling for soups new album aiming to be released this summer

[INTRO PART 1]

e|------------------------------|
B|------------------------------|
G|--4/6/8--4/6/8--4-6-4-6-8-6-4-|
D|--x-x-x--x-x-x--x-x-x-x-x-x-x-|
A|--2/4/6--2/4/6--2-4-2-4-6-4-2-|
E|------------------------------|

play this twice but the 2nd time leave the last -6- ring out
                                                -x-
                                                -4-

[INTRO PART 2] (repeat the above but instead of ringing out -6- play...)
                                                            -x-
                                                            -4-
e|------------------------------|
B|------------------------------|
G|---6-6-xx-6-6-xx-6-6-xx-6-6\--|
D|---x-x-xx-x-x-xx-x-x-xx-x-x\--|
A|---4-4-xx-4-4-xx-4-4-xx-4-4\--|
E|------------------------------|

[VERSE 1] (downstrokes)
e|-------------------------|
B|-------------------------|
G|--4-4--------------------| x2
D|--4-4---2-2---6-6---4-4--|
A|--2-2---2-2---6-6---4-4--|
E|--------0-0---4-4---2-2--|

 (she was gonna be an actress...)
e|-------------------------------------------------------------------------|
B|-------------------------------------------------------------------------|
G|--4----------------------------------------------------------------------|
D|--4-4-4-4-4-4-4-4---2-----------------6-----------------4----------------|
A|--2-2-2-2-2-2-2-2---2-2-2-2-2-2-2-2---6-6-6-6-6-6-6-6---4-4-4-4-4-4-4-4--|
E|--------------------0-0-0-0-0-0-0-0---4-4-4-4-4-4-4-4---2-2-2-2-2-2-2-2--|
    pm.......     .......     .......     .......

e|------------------------------------------------------------------------------------|
B|------------------------------------------------------------------------------------|
G|--4---------------------------------------------------------------------------------|
D|--4-4-4-4-4-4-4-4---2-----------------6-----------------4-4-x-x-4-4-x-x-4-4-x-x-4---|
A|--2-2-2-2-2-2-2-2---2-2-2-2-2-2-2-2---6-6-6-6-6-6-6-6---4-4-x-x-4-4-x-x-4-4-x-x-4---|
E|--------------------0-0-0-0-0-0-0-0---4-4-4-4-4-4-4-4---2-2-x-x-2-2-x-x-2-2-x-x-2---|
    pm.......     .......     .......

[CHORUS] - GUITAR 1
e|----------------------------------------------------------------|
B|----------------------------------------------------------------|
G|--4-4-4-4-4-4-4-4-4-4--9-9-9-9-9-9-9-9-9-9----------------------|
D|--4-4-4-4-4-4-4-4-4-4--9-9-9-9-9-9-9-9-9-9--6-6-6-6-6-6-6-6-6-6-|
A|--2-2-2-2-2-2-2-2-2-2--7-7-7-7-7-7-7-7-7-7--6-6-6-6-6-6-6-6-6-6-|
E|--------------------------------------------4-4-4-4-4-4-4-4-4-4-|

e|----------------------------------------------------|
B|----------------------------------------------------| (these r ment
G|--1--1-1--1-1--1-1--1-1--1-1--1-1--1-1--1-1--1-1--1-|  2 be "11"'s)
D|--1--1-1--1-1--1-1--1-1--1-1--1-1--1-1--1-1--1-1--1-|
A|---9----9----9----9----9----9----9----9----9----9---|
E|----------------------------------------------------|

[CHORUS] - GUITAR 2
e|------------------------------------------------------------------------------------------------|
B|------------------------------------------------------------------------------------------------|
G|--4-4-4-4-4-4-4-4-4-4---------------------------------------------------------------------------|
D|--4-4-4-4-4-4-4-4-4-4--2-2-2-2-2-2-2-2-2-2--6-6-6-6-6-6-6-6-6-6--4-4-4-4-4-4-4-4-4-4------------|
A|--2-2-2-2-2-2-2-2-2-2--2-2-2-2-2-2-2-2-2-2--6-6-6-6-6-6-6-6-6-6--4-4-4-4-4-4-4-4-4-4------------|
E|-----------------------0-0-0-0-0-0-0-0-0-0--4-4-4-4-4-4-4-4-4-4--2-2-2-2-2-2-2-2-2-2------------|

END THE CHORUS THE SAME WAY YOU END THE VERSE

REPEAT PART 1 OF INTRO AND WHOLE VERSE

REPEAT CHORUS

 SOLO (not sure) - play the chorus for the backin guitar in the solo
e|-----------------------------------------|
B|-----------------------------------------|
G|--8-6-4--4-6-8--8-6-4--9-8-9-8-9-8-6-4---|
D|-----------------------------------------|
A|-----------------------------------------|
E|-----------------------------------------|

for the rest of the song just play the chorus

any suggestions plz email me: matt_barry182@msn.com

************************************

| x  Dead note
| /  Slide up
| \  Slide down

************************************
Suggest correction
comments
print report bad tab
39 comments total. Showing first comments.
0 reply
gr33n@tion 10 wrote on August 19 2004, 12:00 am

Cool tab, sounds pretty okay....

0 reply
KrazyKingsFreak 101 wrote on August 24 2004, 12:00 am

i think the intro might be off but the rest sounds ok i think

+1 reply
gr33n@tion 10 wrote on September 1 2004, 12:00 am

coolio tabio...rockio onio

guest
You may want to rate the tab now too:
select rating
Wanna post a correction for this tab? Suggest correction