Oops, an error
Loading. Please wait.

A Friendly Goodbye tab

version 1
version 1

Whole song

4,121 views 6 this week
3 commentsread comments
1 2 3 4 5
1 last vote to show rating
add to favorites
×
Save as Personal and add changes to this tab that will be seen only by you. Learn more ›
×
You can save this tab as Personal to edit and correct it or add notes. All changes will be seen only by you. Learn more »
launch autoscroll
font size
0
reset
how to read this tab
guitar tuner
edit
Autoscroll
slow
fast
+/-
esc
set tempo
stop
Difficulty
This Is A Song Off Of Bowling For Soups New Album I Think I Fucked The Bridge Up But 
Please Rate & Comment :)

Band: Bowling For Soup
Song: A Friendly Goodbye
Album: The Great Burrito Extortion Case
Tabber: Mosy!

Standard Tuning

Low To High (E-A-D-G-B-E-)


Intro
[-------------------------------------------]
[-------------------------------------------]
[-------------------------------------------]
[-2-2-22-----7-7-77-----2-2-22-----7-7-77-9-]
[-0-0-00--2--5-5-55--2--0-0-00--2--5-5-55-7-]
[---------0----------0----------0-----------]

[-------------------------------------------]
[-------------------------------------------]
[-------------------------------------------]
[-2-2-22-----7-7-77-----2-2-22-----7-7-7-9--]
[-0-0-00--2--5-5-55--2--0-0-00--2--5-5-5-7--]
[---------0----------0----------0-----------]

Verse Part 1:
    **************************************************************
[-----------------------------------------------------------------]
[-----------------------------------------------------------------]
[-----------------------------------------------------------------]
[-2-2-2-2-2-2-2-2-4-4-4-4-4-4-4-4-7-7-7-7-7-7-7-7-9-9-9-9-9-9-9-9-]
[-0-0-0-0-0-0-0-0-2-2-2-2-2-2-2-2-5-5-5-5-5-5-5-5-7-7-7-7-7-7-7-7-]
[-----------------------------------------------------------------]

 *****************************************************************
[-----------------------------------------------------------------]
[-----------------------------------------------------------------]
[-----------------------------------------------------------------]
[-2-2-2-2-2-2-2-2-4-4-4-4-4-4-4-4-7-7-7-7-7-7-7-7-9-9-9-9-9-9-9-9-]
[-0-0-0-0-0-0-0-0-2-2-2-2-2-2-2-2-5-5-5-5-5-5-5-5-7-7-7-7-7-7-7-7-]
[-----------------------------------------------------------------]

Verse Part 2:
  ***   ***  ********  ****   *******    ***  *******   ***   ***
[-----------------------------------------------------------------]
[-----------------------------------------------------------------]
[-----------------------------------------------------------------]
[-7-7-7-7-7-7-7-7-9-9-9-9-9-9-9-9-2-2-2-2-2-2-2-2-7-7-7-7-7-7-7-7-]
[-5-5-5-5-5-5-5-5-7-7-7-7-7-7-7-7-0-0-0-0-0-0-0-0-5-5-5-5-5-5-5-5-]
[-----------------------------------------------------------------]

  ***   ***  ********  ****   *******    ***  *******   ***   ***
[-----------------------------------------------------------------]
[-----------------------------------------------------------------]
[-----------------------------------------------------------------]
[-7-7-7-7-7-7-7-7-9-9-9-9-9-9-9-9-2-2-2-2-2-2-2-2-7-7-7-7-7-7-7-7-]
[-5-5-5-5-5-5-5-5-7-7-7-7-7-7-7-7-0-0-0-0-0-0-0-0-5-5-5-5-5-5-5-5-]
[-----------------------------------------------------------------]

[-----][-----][-----][------------]
[-----][-----][-----][------------]
[--9--][--9--][-----][------------]
[--9--][--9--][-----][------------]
[--7--][--7--][-----][------------]
[-----][-----][-----][-Pickscrape-]

Chorus:
[------------------------------------------------------------------]
[------------------------------------------------------------------]
[----------9-9-9-9--7-7-7-7--9-9-9-9-----------9-9-9-9--7-7-7-7-7--]
[-7-7-7-7--9-9-9-9--7-7-7-7--9-9-9-9--7-7-7-7--9-9-9-9--7-7-7-7-7--]
[-7-7-7-7--7-7-7-7--5-5-5-5--7-7-7-7--7-7-7-7--7-7-7-7--5-5-5-5-5--]
[-5-5-5-5-----------------------------5-5-5-5----------------------]

Bridge:
[-------------------------------------------------------------]
[-------------------------------------------------------------]
[-------------------------------------------------------------]
[-4-4-4-4-4-4-4-4-------------------7-7-7-7-7-7-7-x-----------]
[-2-2-2-2-2-2-2-2--2-2-2-2-2-2-2-2--5-5-5-5-5-5-5-0--7--------]
[------------------0-0-0-0-0-0-0-0-------------------5--------]

[-------------------------------------------------------------]
[-------------------------------------------------------------]
[-------------------------------------------------------------]
[-4-4-4-4-4-4-4-4-------------------7-7-7-7-7-7-7-------------]
[-2-2-2-2-2-2-2-2--2-2-2-2-2-2-2-2--5-5-5-5-5-5-5-0--7--------]
[------------------0-0-0-0-0-0-0-0-------------------5--------]

[--------------------------------------------------------------------]
[--------------------------------------------------------------------]
[--------------------------------------------------------------------]
[-4-4-4-4-4-4-4-4--9-9-9-9-9-9-9-9-------------------6-6-6-6-6-6-6-6-]
[-2-2-2-2-2-2-2-2--7-7-7-7-7-7-7-7--7-7-7-7-7-7-7-7--4-4-4-4-4-4-4-4-]
[-----------------------------------5-5-5-5-5-5-5-5------------------]

[-----][-----][-----]
[-----][-----][-----]
[--4--][--7--][--9--]
[--4--][--7--][--9--]
[--2--][--5--][--7--]
[-----][-----][-----]

Outro:
[-------------]
[-------------]
[-------------]
[----2-----7--]
[-2--0--2--5--]
[-0-----0-----]

End:
[---]
[---]
[---]
[-2-]
[-2-]
[-0-]

            
            
Suggest correction
Creating personal tab
Creating personal tab
You can edit any tab online and save it as your Personal.

You can edit, replace or remove any tab part or add personal notes – all changes will be seen only by you.

Personal tabs can be accessed anytime from any device, even offline.
Learn more »
Give kudos to tab author, rate the tab!
1 2 3 4 5
comments
print report bad tab
3 comments total.
0 reply
Bair 2,226 Nov 09, 2006 05:19 AM

Your E in the intro should be an Em...take another listen, its high not low...other than that, awsome job

0 reply
Bair 2,226 Nov 09, 2006 05:25 AM

Intro
e|------------------------------------------------------|
B|------------------------------------------------------|
G|------------------------------------------------------|
D|----------9--7-7-77--9----------9--7-7-77--9----------|
A|--7-7-77--7--5-5-55--7--7-7-77--7--5-5-55--7----------|
E|--5-5-55----------------5-5-55------------------------|

0 reply
WCS_Is_Worse1 20 Nov 20, 2006 02:22 PM

lol funny ass song

guest
Wanna post a correction for this tab? Suggest correction