Oops, an error
Loading. Please wait.

A Hangover You Dont Deserve Tab

3,327 views 3 this week
no commentswrite comment
1 2 3 4 5
worth learning
x 5
add to favorites
launch autoscroll
font size
0
reset
how to read this tab
guitar tuner
Tab Pro tools
  • play this tab
  • loop segment
  • change instrument
  • show fretboard
  • metronome
×
Best way to learn
"A Hangover You Dont Deserve"
Autoscroll
slow
fast
+/-
esc
set tempo
stop
Contributor
Here is Bowling For Soup's "A Hangover You Don't Deserve" album. I didn't write these, I 
just putting it in album for for easy access.

1. Almost
2. Trucker Hat
3. 1985
4. Get Happy
5. Ohio (Come Back To Texas)
6. Ridiculous
7. Shut-Up And Smile
8. Last Call Casualty
9. Next Ex-Girlfriend
10. A-hole
11. My Hometown
12. Smoothie King
13. Sad Sad Situation
14. Really Might Be Gone
15. Down For The Count
16. Two-Seater
17. Friends O' Mine
18. Ohio (Hidden Bonus Track)
19. Belgium (Hidden Bonus Track)

------------------------------------------------------------------

1. Almost

Tab By Vampir3sLov3r


-Standard Tuning-

Intro
E|-------------------------------------|
B|-----542024----542024----542024------|
G|---4---------4---------4---------4---|
D|--4-4-------4-4-------4-4-------4-4~-|
A|-2-----------------------------------|
E|-----------2---------4---------0-----|

Guitar Riff 1 x6
E|-----------|
B|-----------|
G|-4/8-6/8/4-|
D|-x/x-x/x/x-|
A|-2/6-4/6/2-|
E|-----------|

E|-----------|
B|-----------|
G|-4/9-8/44--|
D|-x/x-x/xx--|
A|-2/7-6/22--|
E|-----------|

Guitar 2 Riff/Verse
E|--------------------------------|
B|--------------------------------|
G|-4-4-4-4------------------------|
D|-4-4-4-4-4-4-4-4-6-6-6-6-2-2-2-2|
A|-2-2-2-2-4-4-4-4-6-6-6-6-2-2-2-2|
E|---------2-2-2-2-4-4-4-4-0-0-0-0|
 ^^Play with choppyness^^

Chorus x2
E|--------------------------------|
B|--------------------------------|
G|-4-4-4-4------------------------|
D|-4-4-4-4-4-4-4-4-6-6-6-6-2-2-2-2|
A|-2-2-2-2-4-4-4-4-6-6-6-6-2-2-2-2|
E|---------2-2-2-2-4-4-4-4-0-0-0-0|

Riff 1 x3
E|-----------|
B|-----------|
G|-4/8-6/8/4-|
D|-x/x-x/x/x-|
A|-2/6-4/6/2-|
E|-----------|

E|-----------|
B|-----------|
G|-4/9-8/44--|
D|-x/x-x/xx--|
A|-2/7-6/22--|
E|-----------|

Guitar 2 Backround/verse 2
E|--------------------------------|
B|--------------------------------|
G|-4-4-4-4------------------------|
D|-4-4-4-4-4-4-4-4-6-6-6-6-2-2-2-2|
A|-2-2-2-2-4-4-4-4-6-6-6-6-2-2-2-2|
E|---------2-2-2-2-4-4-4-4-0-0-0-0|

Chorus

E|-------------------------------|
B|-------------------------------|
G|-------------------------4~----|
D|-6-6-6-6-4-4-4-4-2-2-2-2-4~--4-|
A|-6-6-6-6-4-4-4-4-2-2-2-2-2~--4-|
E|-4-4-4-4-2-2-2-2-0-0-0-0-----2-|
"You kept me guessing..."
Riff x3

Bridge
E|---------------|  |---------------|
B|---------------|  |---------------|
G|----------4----|  |-------------4~|
D|-4----2---4x8--|x2|-6---4---2---4~|
A|-4x12-2x8-2----|  |-6x8-4x8-2x8-2~|
E|-2----0--------|  |-4---2---0-----|
"Here i go..."      "I know we've.."

Verse 3
E|------------------------------------------|
B|-----542024----542024----542024----542024-|
G|---4---------4---------4---------4--------|
D|--4-4-------4-4-------4-4-------4-4-------|
A|-2----------------------------------------|
E|-----------2---------4---------0----------|
"I almost forgot..."

E|--------------------------------------|
B|-----542024----542024-----------------|
G|---4---------4------------------------|
D|--4-4-------4-4------6666666622222222-|
A|-2-------------------6666666622222222-|
E|-----------2---------4444444400000000-|
                    "But then I..."

Chorus

Riff
E|------------------------------|
B|------------------------------|
G|-4/8-6/8/4--------------------|
D|-x/x-x/x-x-x3-4-4-4444-4-4-2~-|
A|-2/6-4/6-2----4-4-4444-4-4-2~-|
E|--------------2-2-2222-2-2-0~-|


Thank you

Great song...
--------------------------------------------------------------
2. Trucker Hat

Tabbed by BLINKybill-182


Hey guys!
Easy Song....have fun! I didnt check out the Solo....sorry! But it must not be that hard.

Trucker Hat - Bowling For Soup

E                      A               E
This is the song that reminds me of my trucker hat
A              E           B
That I used to wear not to block out the sun
        E                     A           E
With a john deere logo and a stain on the back
               A           E        B
From where you laid me out flat one look I was done

    C#m       C                      E
And all these things mean nothing to me
              F#m
When I'm with you I've got everything
A
I could want and I could need
E
Even God he would agree
A
You and I were meant to be
B
It's easy to see

     HighE            A
I'll never go out of style on you
    HighE                    A
And nothing really feels the way you do
C#m                        F#m
Nothing in the world could ever make me look as good
A                        B
When you fit me like you do

E                            A        E
This is the verse about the Parachute pants
        A               E            B
That I learned to break dance in and thought I was good
E                         A               E
So much for believing the fat guy doesn't win
        A           E           B
get the girl in the end I never thought that I could


And all these things mean nothing to me.....

I'll never go out of style on you...


Solo

F#
I'm not the perfect guy
A
a little slow but I've
E                       B
Got perfect timing with you

F#
Take a look around
E
Outside the in crowd
A                          B
There aint nothing we cant do

I'll never go out of style on you....

----------------------------------------------------------------------
3. 1985

Tabbed by anthemguy

INTRO PART 1
e/------------------------------|
g/------------------------------|
b/--4/6/8--4/6/8--4-6-4-6-8-6-4-|
d/--x-x-x--x-x-x--x-x-x-x-x-x-x-|
a/--2/4/6--2/4/6--2-4-2-4-6-4-2-|
e/------------------------------|

play this twice but the 2nd time leave the last -6- ring out
                                                -x-
                                                -4-

INTRO PART 2 (repeat the above but instead of ringing out -6- play...)
                                                          -x-
                                                          -4-
e/--------------------------------|
g/--------------------------------|
b/---6-6-xx-6-6-xx-6-6-xx-6-6-----|
d/---x-x-xx-x-x-xx-x-x-xx-x-x-----|
a/---4-4-xx-4-4-xx-4-4-xx-4-4-----|
e/--------------------------------|

VERSE 1 (downstrokes)
e/-------------------------|
b/-------------------------|
g/--4-4--------------------| x2
d/--4-4---2-2---6-6---4-4--|
a/--2-2---2-2---6-6---4-4--|
e/--------0-0---4-4---2-2--|

(she was gonna be an actress...)
e/-------------------------------------------------|
b/-------------------------------------------------|
g/--4----------------------------------------------|
d/--4-4444444---2-----------6-----------4----------|
a/--2-2222222---2-2222222---6-6666666---4-4444444--|
e/--------------0-0000000---4-4444444---2-2222222--|
    pm.......     .......     .......     .......

e/---------------------------------------------------------------|
b/---------------------------------------------------------------|
g/--4------------------------------------------------------------|
d/--4-4444444---2-----------6-----------4-4-xx-4-4-xx-4-4-xx-4---|
a/--2-2222222---2-2222222---6-6666666---4-4-xx-4-4-xx-4-4-xx-4---|
e/--------------0-0000000---4-4444444---2-2-xx-2-2-xx-2-2-xx-2---|
    pm.......     .......     .......

CHORUS - GUITAR 1
e/------------------------------------------------------------|
b/------------------------------------------------------------| (these r ment
g/--4444444444--9999999999---------------11111111111111111111-|  2 be "11"'s)
d/--4444444444--9999999999--6666666666---11111111111111111111-|
a/--2222222222--7777777777--6666666666----9-9-9-9-9-9-9-9-9-9-|
e/--------------------------4444444444------------------------|

CHORUS - GUITAR 2
e/------------------------------------------------------------|
b/------------------------------------------------------------|
g/--4444444444------------------------------------------------|
d/--4444444444--2222222222--6666666666--4444444444------------|
a/--2222222222--2222222222--6666666666--4444444444------------|
e/--------------0000000000--4444444444--2222222222------------|

END THE CHORUS THE SAME WAY YOU END THE VERSE

REPEAT PART 1 OF INTRO AND WHOLE VERSE

REPEAT CHORUS

SOLO (not sure) - play the chorus for the backin guitar in the solo
e/-----------------------------------------|
b/-----------------------------------------|
g/--8-6-4--4-6-8--8-6-4--9-8-9-8-9-8-6-4---|
d/-----------------------------------------|
a/-----------------------------------------|
e/-----------------------------------------|

for the rest of the song just play the chorus

any suggestions plz email me: matt_barry182@msn.com
-----------------------------------------------------------

4. Get Happy

Tabbed by emusaregay

 Intro

 E--------------------|
 B--------------------|
 G-7-7-7-7-7-7-7-7-7--|
 D-x-x-x-x-x-x-x-x-x--|
 A-5-5-5-5-5-5-5-5-5--|
 E--------------------|


Verse (words start) she packed her shit....

 E---------------------------------------------------------|
 B---------------------------------------------------------|
 G-7-7-7-7-7-7-7-7-7--5~--------------7-7-7-7-7-7-7-7-7-7--|
 D-x-x-x-x-x-x-x-x-x--5~------5~------x-x-x-x-x-x-x-x-x-x--|
 A-5-5-5-5-5-5-5-5-5--3~------5~------5-5-5-5-5-5-5-5-5-5--|
 E----------------------------3~---------------------------| x 2


Chours=
      Maybe your Right.........

 E---------------------------------------------------------------------|
 B---------------------------------------------------------------------|
 G-----------------------------------7-7-7-7-7-7-7-7--4-4-4-4-4-4-4-4--|
 D-5-5-5-5-5-5-5-5--7-7-7-7-7-7-7-7--7-7-7-7-7-7-7-7--4-4-4-4-4-4-4-4--|
 A-5-5-5-5-5-5-5-5--7-7-7-7-7-7-7-7--5-5-5-5-5-5-5-5--2-2-2-2-2-2-2-2--|
 E-3-3-3-3-3-3-3-3--5-5-5-5-5-5-5-5------------------------------------|

 E----------------------------------------------------------------------|
 B----------------------------------------------------------------------|
 G-----------------------------------7-7-7-7-7-7-7-7-7-7-7-7-7-7-7-7-7--|
 D-5-5-5-5-5-5-5-5--7-7-7-7-7-7-7-7--x-x-x-x-x-x-x-x-x-x-x-x-x-x-x-x-x--|
 A-5-5-5-5-5-5-5-5--7-7-7-7-7-7-7-7--5-5-5-5-5-5-5-5-5-5-5-5-5-5-5-5-5--|
 E-3-3-3-3-3-3-3-3--5-5-5-5-5-5-5-5-------------------------------------|


Verse

 E---------------------------------------------------------|
 B---------------------------------------------------------|
 G-7-7-7-7-7-7-7-7-7--5~--------------7-7-7-7-7-7-7-7-7-7--|
 D-x-x-x-x-x-x-x-x-x--5~------5~------x-x-x-x-x-x-x-x-x-x--|
 A-5-5-5-5-5-5-5-5-5--3~------5~------5-5-5-5-5-5-5-5-5-5--|
 E----------------------------3~---------------------------| x2


2nd Chorus


 E----------------------------------------------------------------------|
 B----------------------------------------------------------------------|
 G-----------------------------------7-7-7-7-7-7-7-7--4-4-4-4-4-4-4-4---|
 D-5-5-5-5-5-5-5-5--7-7-7-7-7-7-7-7--7-7-7-7-7-7-7-7--4-4-4-4-4-4-4-4---|
 A-5-5-5-5-5-5-5-5--7-7-7-7-7-7-7-7--5-5-5-5-5-5-5-5--2-2-2-2-2-2-2-2---|
 E-3-3-3-3-3-3-3-3--5-5-5-5-5-5-5-5-------------------------------------|

 E--------------------------------------------------------------------|
 B--------------------------------------------------------------------|
 G-----------------------------------7-7-7-7-7-7-7-7--4-4-4-4-4-4-4-4-|
 D-5-5-5-5-5-5-5-5--7-7-7-7-7-7-7-7--7-7-7-7-7-7-7-7--4-4-4-4-4-4-4-4-|
 A-5-5-5-5-5-5-5-5--7-7-7-7-7-7-7-7--5-5-5-5-5-5-5-5--2-2-2-2-2-2-2-2-|
 E-3-3-3-3-3-3-3-3--5-5-5-5-5-5-5-5-----------------------------------|


Interlude


 E--------------------------------------------------------------------------|
 B--------------------------------------------------------------------------|
 G-7-7-7-7-7-7-7-7--5-5-5-5-5-5-5-5-----------------------------------------|
 D-7-7-7-7-7-7-7-7--5-5-5-5-5-5-5-5---   -5-5-5-5-5-5-5-5--7-7-7-7-7-7-7-7--|
 A-5-5-5-5-5-5-5-5--3-3-3-3-3-3-3-3---x3 -5-5-5-5-5-5-5-5--7-7-7-7-7-7-7-7--|
 E------------------------------------   -3-3-3-3-3-3-3-3--5-5-5-5-5-5-5-5--|


2ND chorus

    E----------------------------------------------------------------------|
    B----------------------------------------------------------------------|
    G-----------------------------------7-7-7-7-7-7-7-7--4-4-4-4-4-4-4-4---|
    D-5-5-5-5-5-5-5-5--7-7-7-7-7-7-7-7--7-7-7-7-7-7-7-7--4-4-4-4-4-4-4-4---|
    A-5-5-5-5-5-5-5-5--7-7-7-7-7-7-7-7--5-5-5-5-5-5-5-5--2-2-2-2-2-2-2-2---|
    E-3-3-3-3-3-3-3-3--5-5-5-5-5-5-5-5-------------------------------------|

 E--------------------------------------------------------------------|
 B--------------------------------------------------------------------|
 G-----------------------------------7-7-7-7-7-7-7-7--4-4-4-4-4-4-4-4-|
 D-5-5-5-5-5-5-5-5--7-7-7-7-7-7-7-7--7-7-7-7-7-7-7-7--4-4-4-4-4-4-4-4-|
 A-5-5-5-5-5-5-5-5--7-7-7-7-7-7-7-7--5-5-5-5-5-5-5-5--2-2-2-2-2-2-2-2-|
 E-3-3-3-3-3-3-3-3--5-5-5-5-5-5-5-5-----------------------------------|


E-------------------------------------------|
B-------------------------------------------|
G-------------------------------------------|
D-5-5-5-5-5-5-5-5---7-7-7-7-7-7-7-7---------|
A-5-5-5-5-5-5-5-5---7-7-7-7-7-7-7-7---------|
E-3-3-3-3-3-3-3-3---5-5-5-5-5-5-5-5---------|

           Coda


    E-----------------------------------|
    B-----------------------------------|
    G-7-7-7-7-7-7-7-7-------------------|
    D-7-7-7-7-7-7-7-7--5-5-5-5-5-5-5-5--|
    A-5-5-5-5-5-5-5-5--5-5-5-5-5-5-5-5--|
    E------------------3-3-3-3-3-3-3-3--| x 4


      Ending

    E--------------------|
    B--------------------|
    G-7-7-7-7-7-7-7-7-7--|
    D-x-x-x-x-x-x-x-x-x--|
    A-5-5-5-5-5-5-5-5-5--|
    E--------------------|

eNJOY dUDES

----------------------------------------------------------------

5. Ohio (come back to Texas)

Tabbed by: Letty
Email: takeyourbooksandleave@hotmail.com

(= palm mute)
(_ hold note or word)

Tuning: standard

intro
 (=============================palm mute=======================)
e|---------------------------------------------------------------------------|
B|---------------------------------------------------------------------------|
G|---------------------------------------------------------------------------|
D|4444444444444444-2222222222222222-------------------444444444--------------|
A|2222222222222222-2222222222222222-66666666-44444444-222222222--------------|
E|-----------------0000000000000000-44444444-22222222------------------------|
  break.           think.           clevel.  leeland  bank

e|---------------------------------------------------------------------------|
B|---------------------------------------------------------------------------|
G|---------------------------------------------------------------------------|
D|4444444444444444-2222222222222222-------------------4444444444444444-------|
A|2222222222222222-2222222222222222-66666666-44444444-2222222222222222-------|
E|-----------------0000000000000000-44444444-22222222------------------------|
  ohio.            rain.            carey.   see.     fame.
pre chorus

e|-0-----------------0-------------------------------------------------------|
B|-0-----------------0-------------------------------------------------------|
G|-0-----------------0-------------------------------------------------------|
D|22222222-44444444-22222222-44444444-------------------222222222------------|
A|22222222-22222222-22222222-22222222-66666666-44444444-222222222------------|
E|00000000----------00000000----------44444444-22222222-000000000------------|
  done.    whatev.  through. whoev.   county.  here.    you

chorus

e|---------------------------------------------------------------------------|
B|---------------------------------------------------------------------------|
G|---------------------------------------------------------------------------|
D|9999999999999999-44444444----------2222222222222222-44444444---------------|
A|7777777777777777-22222222-44444444-2222222222222222-22222222-44444444------|
E|0000000000000000----------22222222-0000000000000000----------22222222------|
  texas.           same.    away.    accent.          about.   state

e|---------------------------------------------------------------------------|
B|---------------------------------------------------------------------------|
G|---------------------------------------------------------------------------|
D|------------------22222222-44444444-66666666----------2222222222222222-----|
A|66666666-44444444-22222222-22222222-44444444-44444444-2222222222222222-----|
E|44444444-22222222-00000000-------------------22222222-0000000000000000-----|
  seat.   rodeo.   got.     saved.   mexican.  more.    anyway

(verse)

(pre chorus)

(chorus)

Bridge1

e|---------------------------------------------------------------------------|
B|---------------------------------------------------------------------------|
G|---------------------------------------------------------------------------|
D|2222222222222222-4444444444444444-2222222222222222-4444444444444444--------|
A|2222222222222222-2222222222222222-2222222222222222-2222222222222222--------|
E|0000000000000000------------------0000000000000000-------------------------|
  aikman.          nelson.          nasa.            bush twins.

e|---------------------------------------------------------------------------|
B|---------------------------------------------------------------------------|
G|---------------------------------------------------------------------------|
D|2222222222222222-4444444444444444-------------------22222222---------------|
A|2222222222222222-2222222222222222-66666666-44444444-22222222-44444444444---|
E|0000000000000000------------------44444444-22222222-00000000-22222222222---|
  pantera.         blue.            got.     takin'.  whole.   sign_______

 (chorus) x2

end

e|---------------------------------------------------------------------------|
B|---------------------------------------------------------------------------|
G|---------------------------------------------------------------------------|
D|66666666----------22222222---------4---------------------------------------|
A|44444444-44444444-22222222---4-6---2_______--------------------------------|
E|---------22222222-00000000___2-4-0-----------------------------------------|
  mexican. more.    anyway           yeah

--------------------------------------------------------------

6. Ridiculous

Tabbed by mgilesfan27

intro/verse
E|-------------------------------------------------------------------||
B|-------------------------------------------------------------------||
G|-7-7----7--7-7-7-7-------------------------------------------------||
D|-7-7--7----7-7-7-7--7-7----7--7-7-7-7--9-9----9--9-9-9-9-----------||
A|-5-5-------5-5-5-5--7-7--7----7-7-7-7--9-9--9----9-9-9-9-----------||
E|--------------------5-5-------5-5-5-5--7-7-------7-7-7-7-----------||

continued
E|------------------------------||
B|------------------------------||
G|------------------------------||
D|-7-7----7--7-7-7-7------------||
A|-7-7--7----7-7-7-7------------||
E|-5-5-------5-5-5-5------------||

pre chorus
E|------------------------------------------------------------------||
B|------------------------------------------------------------------||
G|-77-7-7-7-7-7-7-7-7-----------------------------------------------||
D|-77-7-7-7-7-7-7-7-7-77-7-7-7-7-7-7-7-7-99-9-9-9-9-9-9-9-9---------||
A|-55-5-5-5-5-5-5-5-5-77-7-7-7-7-7-7-7-7-99-9-9-9-9-9-9-9-9---------||
E|--------------------55-5-5-5-5-5-5-5-5-77-7-7-7-7-7-7-7-7---------||
 PM   . . . . . . . .    . . . . . . . .    . . . . . . . .


E|--------------------------------||
B|--------------------------------||
G|--------------------------------||
D|-77-7-7-7-7-7-7-7-7-------------||
A|-77-7-7-7-7-7-7-7-7-------------||
E|-55-5-5-5-5-5-5-5-5-------------||
 PM   . . . . . . . .

Chorus p1
E|------------------------------------------------------------------||
B|------------------------------------------------------------------||
G|-7-7-7-7-7-7-7-7--------------------------------------------------||
D|-7-7-7-7-7-7-7-7-4-4-4-4-4-4-4-4-7-7-7-7-7-7-7-7------------------||
A|-5-5-5-5-5-5-5-5-4-4-4-4-4-4-4-4-7-7-7-7-7-7-7-7------------------||
E|-----------------2-2-2-2-2-2-2-2-5-5-5-5-5-5-5-5------------------||


E|------------------------------------------------------------------||
B|------------------------------------------------------------------||
G|-7-7-7-7-7-7-7-7--------------------------------------------------||
D|-7-7-7-7-7-7-7-7-5-5-5-5-5-5-5-5----------------------------------||
A|-5-5-5-5-5-5-5-5-5-5-5-5-5-5-5-5----------------------------------||
E|-----------------3-3-3-3-3-3-3-3----------------------------------||

chorus p2

E|-------------------------------------------------------------------||
B|-------------------------------------------------------------------||
G|-7-7-7-7-6-6-6-6-4-4-4-4-2-2-2-2-7-7-7-7-7-7-7-7-7-7-7-7-7-7-7-----||
D|-7-7-7-7-6-6-6-6-4-4-4-4-2-2-2-2-7-7-7-7-7-7-7-7-7-7-7-7-7-7-7-----||
A|-5-5-5-5-4-4-4-4-2-2-2-2-0-0-0-0-5-5-5-5-5-5-5-5-5-5-5-5-5-5-5-----||
E|-------------------------------------------------------------------||

bridge, i think this is just played over and over
E|--------------------------------------------------------------||
B|--------------------------------------------------------------||
G|-7-7-7-7-7-7-7-7----------------------------------------------||
D|-7-7-7-7-7-7-7-7-4-4-4-4-4-4-4-4------------------------------||
A|-5-5-5-5-5-5-5-5-4-4-4-4-4-4-4-4------------------------------||
E|-----------------2-2-2-2-2-2-2-2------------------------------||
thats all, enjoy

-----------------------------------------------------------------


I am now trying something new, just complining the best tabs in one place available at 
click of the mouse!


7. Shut up and smile

http://ultimate-guitar.com/tabs/b/bowling_for_soup/shut_up_and_smile_tab.htm

8. Last Call Casualty

http://ultimate-guitar.com/tabs/b/bowling_for_soup/last_call_causualty_intro_tab.htm

9. Next Ex-Gilfriend

http://ultimate-guitar.com/tabs/b/bowling_for_soup/next_ex-girlfriend_tab.htm

10. A-Hole

http://ultimate-guitar.com/tabs/b/bowling_for_soup/a-hole_crd.htm

11. My Hometown

http://ultimate-guitar.com/tabs/b/bowling_for_soup/my_hometown_tab.htm

12. Smoothie King (unavailable)

13. Sad Sad Situation

http://ultimate-guitar.com/tabs/b/bowling_for_soup/sad_sad_situation_tab.htm

14. Really Might Be Gone (unavailable)

15. Down For the Count

http://ultimate-guitar.com/tabs/b/bowling_for_soup/sad_sad_situation_tab.htm

16. Two-Seater

http://ultimate-guitar.com/tabs/b/bowling_for_soup/sad_sad_situation_tab.htm

17. Friends O' Mine

http://ultimate-guitar.com/tabs/b/bowling_for_soup/friends_of_mine_tab.htm

18. Ohio (unavailable)

19. Belgium

http://ultimate-guitar.com/tabs/b/bowling_for_soup/belgium_acoustic_crd.htm

thx
comments
print report bad tab
I want to post or [tab]
guest
You may want to rate the tab now too:
select rating
Please do not post tabs as comments. Select "correction" instead!