Oops, an error
Loading. Please wait.

Baby One More Time bass

version 1
version 1

Whole song

Interactive

2,219 views 3 this week
1 commentread comment
1 2 3 4 5
1 last vote to show rating
add to favorites
×
Save as Personal and add changes to this tab that will be seen only by you. Learn more ›
×
You can save this tab as Personal to edit and correct it or add notes. All changes will be seen only by you. Learn more »
launch autoscroll
font size
0
reset
guitar tuner
edit
Autoscroll
slow
fast
+/-
esc
set tempo
stop
Author
Difficulty
Intro Part 1 - No Bass

Intro Part 2 (Distorted Guitar Part)

G|--------------------------------------|
D|--------------------------------------|
A|-2-(x8)---------5-(x8)----------------|
E|--------2-(x8)---------0-(x4)--2-(x4)-|

Verse 1

G|--------------------------------------|
D|--------------------------------------|
A|-2~~~~~---------5-(x8)----------------| (x1)
E|-----------------------0-(x4)--2-(x4)-|

G|--------------------------------------| 
D|--------------------------------------|
A|-2-(x8)---------5-(x8)----------------| (x2)
E|--------2-(x8)---------0-(x4)--2-(x4)-|

Chorus

G|--------------------------------------| 
D|--------------------------------------|
A|-2-(x8)---------5-(x8)----------------| (x2)
E|--------2-(x8)---------0-(x4)--2-(x4)-|

G|------|
D|------|
A|--7\--|
E|------|

Verse 2

G|--------------------------------------| 
D|--------------------------------------|
A|-2-(x8)---------5-(x8)----------------| (x3)
E|--------2-(x8)---------0-(x4)--2-(x4)-|

Chorus

G|--------------------------------------| 
D|--------------------------------------|
A|-2-(x8)---------5-(x8)----------------| (x2)
E|--------2-(x8)---------0-(x4)--2-(x4)-|

G|------|
D|------|
A|--7\--|
E|------|

Bass Interlude

G|---------------| 
D|---------------|
A|-2-(x8)--------| (x2, 2nd time with slight guitar palm mute)
E|--------2-(x8)-|

G|--------------------------------------| 
D|--------------------------------------|
A|-2-(x8)---------5-(x8)----------------| 
E|--------2-(x8)---------0-(x4)--2-(x4)-|

G|------------------------------------|
D|------------------------------------|
A|------------------------------------|
E|-3-(x8)-5-(x8)-3-(x8)-0-(x4)-2-(x4)-|

G|--------------------------------------| 
D|--------------------------------------|
A|-2-(x8)---------5-(x8)----------------| 
E|--------2-(x8)---------0-(x4)--2-(x4)-|

G|------------------------------------|
D|------------------------------------|
A|------------------------------------|
E|-3-(x8)-5-(x8)-3-(x8)-0------2------|

Chorus

G|--------------------------------------| 
D|--------------------------------------|
A|-2-(x8)---------5-(x8)----------------| (x2)
E|--------2-(x8)---------0-(x4)--2-(x4)-|

G|------|
D|------|
A|--7\--|
E|------|


            
            
Suggest correction
Creating personal tab
Creating personal tab
You can edit any tab online and save it as your Personal.

You can edit, replace or remove any tab part or add personal notes – all changes will be seen only by you.

Personal tabs can be accessed anytime from any device, even offline.
Learn more »
Give kudos to tab author, rate the tab!
1 2 3 4 5
comments
print report bad tab
1 comment total.
+1 reply
BroDD 368 Nov 01, 2008 05:16 AM

Dude, you got the simple stuff right but you have the verse completely wrong(dunno if you got any other parts wrong

In the verse he plays differently not following the guitar, listen carefully and you should hear it

guest
You may want to rate the tab now too:
select rating
Wanna post a correction for this tab? Suggest correction