Oops, an error
Loading. Please wait.

Baby One More Time bass

version 2
version 2

Whole song

Interactive

1,613 views 6 this week
no commentswrite comment
1 2 3 4 5
1 last vote to show rating
add to favorites
×
Save as Personal and add changes to this tab that will be seen only by you. Learn more ›
×
You can save this tab as Personal to edit and correct it or add notes. All changes will be seen only by you. Learn more »
launch autoscroll
font size
0
reset
guitar tuner
edit
Autoscroll
slow
fast
+/-
esc
set tempo
stop
Author
Difficulty
-----------------------------------------------------------------------------
			     Baby one more time - Bowling for Soup
-----------------------------------------------------------------------------

Tabbed By : Andrew Nesbitt
e-mail: andrewnesbitt13@hotmail.com

Tuning: Standard

Hey guys , this is my first time making a tab and i know its not the best song in the 
but my band was playin' it and i thought i'd put a pretty accurate version up for all the 
of you guys! hope You like it!


Intro Part 1 - No Bass

Intro Part 2 - with distorted guitar

G|------------------------------------|
D|------------------------------------|
A|-22222222--------55555555-----------|
E|---------22222222---------0000-2222-|

Verse 1

G|------------------------------------|
D|------------00-4-0-5h4h0-2----------|
A|-2~~~~~-----------------------------|
E|--------------------------0000-2222-|


G|---------------------------------------------|
D|---4--444---------00-4-0-5h4h0-2-------------|
A|-22-22------4--444---------------------------|
E|---------22-22------------------0000-2222----|

Chorus

G|------------------------------------|
D|------------------------------------|
A|-22222222--------55555555-----------|  (x2)
E|---------22222222---------0000-2222-|

G|------------------------------------|
D|------------------------------------|
A|-22222222--------55555555-----------|
E|---------22222222---------0~X-------|

Verse 2

G|---------------------------------------------|
D|---4--444---------00-4-0-5h4h0-2-------------|
A|-22-22------4--444---------------------------|  (x2)
E|---------22-22------------------0000-2222----|

Chorus

G|------------------------------------|
D|------------------------------------|
A|-22222222--------55555555-----------|  (x2)
E|---------22222222---------0000-2222-|

G|------------------------------------|
D|------------------------------------|
A|-22222222--------55555555-----------|
E|---------22222222---------0~~~X-----|

Bass Interlude

G|------------------------------------|
D|------------------------------------|
A|-22222222--------22222220-----------|
E|---------22222222--------22222222---|

G|---------------------------------------|
D|---------------------------------------|
A|-22222222--------55555555--------------|
E|---------22222222--------0000-2222-----|

G|----------------------------------------|
D|----------------------------------------|
A|----------------------------------------|
E|-33333333-55555555-33333333-0000-2222---|

Chorus

G|------------------------------------|
D|------------------------------------|
A|-22222222--------55555555-----------|
E|---------22222222---------0000-2222-|

G|--------------------------------------------------------------|
D|--------------------------------------------------------------|
A|--------------------------------------------------------------|
E|-33333333-55555555-33333333-X---(hit me Baby one more...)-----|

Last chorus

G|--(...Time)-------------------------------|
D|------------------------------------------|
A|----9\22222222--------55555555------------|
E|--------------22222222--------0000-2222---|

G|--------------------------------------------------------------|
D|--------------------------------------------------------------|
A|-22222222--------55555555-------------------------------------|
E|---------22222222--------0~~~~~X--(hit me Baby one more time)-|

| /  slide up
| \  slide down
| h  hammer-on
| p  pull-off
| ~  vibrato
| +  harmonic
| x  Mute note

=============================================================================

            
            
Suggest correction
Creating personal tab
Creating personal tab
You can edit any tab online and save it as your Personal.

You can edit, replace or remove any tab part or add personal notes – all changes will be seen only by you.

Personal tabs can be accessed anytime from any device, even offline.
Learn more »
Give kudos to tab author, rate the tab!
1 2 3 4 5
comments
print report bad tab
guest
You may want to rate the tab now too:
select rating
Wanna post a correction for this tab? Suggest correction