Oops, an error
Loading. Please wait.

Bipolar bass

322 views 1 this week
no commentswrite comment
1 2 3 4 5
3 more votes to show rating
add to favorites
×
Save as Personal and add changes to this tab that will be seen only by you. Learn more ›
×
You can save this tab as Personal to edit and correct it or add notes. All changes will be seen only by you. Learn more »
launch autoscroll
font size
0
reset
guitar tuner
edit
Autoscroll
slow
fast
+/-
esc
set tempo
stop
Tabbed by:  Pat

Intro:
G|---------------------------------------------------|
D|---------------------------------------------------|
A|----------2-22-22-----------3-33-33----------------|
E|-3-33-33-----------0-00-00-------------------------|


Verse:  
G|---------------------------------------------------|
D|---------------------------------------------------|
A|----------2-22-22-----------3-33-33----------------|
E|-3-33-33-----------0-00-00-------------------------| x2

Chorus:
G|-----------------------------------------------------------|
D|-----------------------------------------------------------|
A|---------22222222-33333333-00000000-x2---------2222-0000---|
E|-3333333-------------------------------3333333-------------| 

Pre-Verse:
G|---------------------------------------------------|
D|---------------------------------------------------|
A|----------2-22-22-----------3-33-33----------------|
E|-3-33-33-----------0-00-00-------------------------|

Verse: 
G|---------------------------------------------------|
D|---------------------------------------------------|
A|----------2-22-22-----------3-33-33----------------|
E|-3-33-33-----------0-00-00-------------------------|x2

Chorus:
G|-----------------------------------------------------------|
D|-----------------------------------------------------------|
A|---------22222222-33333333-00000000-x2---------2222-0000---|
E|-3333333-------------------------------3333333-------------| 

Bridge:
G|------------------------------------------------------------------|
D|------------------------------------------------------------------|
A|----------22222222-x1-3333333-5555555-222222222-33333333-x3-------|
E|-33333333---------------------------------------------------------|

Pre-Verse:
G|----------|
D|----------|
A|----------|
E|-3-33-33--|

Chorus:
G|-----------------------------------------------------------|
D|-----------------------------------------------------------|
A|---------22222222-33333333-00000000-x2---------2222-0000---|
E|-3333333-------------------------------3333333-------------| 

End:
G|----------|
D|----------|
A|----------|
E|-3-33-33--|


Lyrics

Oh, no, here we go, here we go again
You were so afraid, you let me back in
Back in through a door you had long forgot
It's resistance shot, mine was not

But, I waited, my complicated, over rated girl
You know that I hated, we suffocated, and over stated everything
Why can't you be bisexual instead of bipolar?

Oh, look, there she goes, there she goes again
She keeps on checkin' out, checkin' out her friends
Swear you'd never know what was on her mind
Wish she'd given in at least one time

But, I waited, my complicated, over rated girl
You know that I hated, we suffocated, and over stated everything
Why can't you be bisexual instead of bipolar?

Get up, get up, what'cha doin' in bed?  I think it's all in your head
Get up, get up, no missin' Sunday mornin', and there's a whole world around, you gotta let it in
Especially girls, we all love the girls

I waited, my complicated, over rated girl
You know that I hated, we suffocated, and over stated everything
Why can't you be bisexual... (instead of bipolar)
Why can't you be bisexual... (instead of bipolar)
Why can't you be bisexual instead of bipolar?
Suggest correction
Creating personal tab
Creating personal tab
You can edit any tab online and save it as your Personal.

You can edit, replace or remove any tab part or add personal notes – all changes will be seen only by you.

Personal tabs can be accessed anytime from any device, even offline.
Learn more »
Give kudos to tab author, rate the tab!
1 2 3 4 5
comments
print report bad tab
guest
You may want to rate the tab now too:
select rating
Wanna post a correction for this tab? Suggest correction