Oops, an error
Loading. Please wait.

Critically Disdained tab

3,396 views 9 this week
4 commentsread comments
1 2 3 4 5
x 4
add to favorites
×
Save as Personal and add changes to this tab that will be seen only by you. Learn more ›
×
You can save this tab as Personal to edit and correct it or add notes. All changes will be seen only by you. Learn more »
launch autoscroll
font size
0
reset
how to read this tab
guitar tuner
edit
Autoscroll
slow
fast
+/-
esc
set tempo
stop
Author
-----------------------------------------------------------------------------
                Critically Disdained - Bowling For Soup
-----------------------------------------------------------------------------
Tabbed by: Fabio-BlenderBR
 - Please rate and send me your feedback - 

Intro : 

e|--------------------------------------------------------|
B|--------------------------------------------------------|
G|------------999999999--------------777777777777---------|
D|-7777777777-999999999-444444444444-777777777777---------|
A|-7777777777-777777777-444444444444-555555555555---------|
E|-5555555555-----------222222222222----------------------|

- Verse 
(Running up the flag pole and see if anyone salutes...)

e|---------------------------------------------------------|
B|---------------------------------------------------------|
G|------------999999999----------------------777777777777--|
D|-7777777777-999999999-444444444444-2222222-777777777777--|
A|-7777777777-777777777-444444444444-2222222-555555544555--|  2x
E|-5555555555-----------222222222222-0000000---------------|

- Chorus
(We re not here to change the world...)

e|----------------------------------------|
B|----------------------------------------|
G|--7777777-9999999-----------------------|
D|--7777777-9999999-77777777-44444444-----|
A|--5555555-7777777-77777777-44444444-----|
E|------------------55555555-22222222-----|

(Maybe get a nap along the way....)

e|----------------------------------------------------|
B|----------------------------------------------------|
G|--7777777-9999999-11111111-99-777777-9999999--------|
D|--7777777-9999999-11111111-99-777777-9999999-7-6-4--|
A|--5555555-7777777-99999999-77-555555-7777777-7-6-4--|
E|---------------------------------------------5-4-2--|

(And then meet us at the bar and we'll let you by...)

e|---------------------------------------|
B|---------------------------------------|
G|-7--9----------------------------------|
D|-7--9--77777772227777777222------------|
A|-5--7--77777772227777777222------------|
E|-------55555550005555555000------------|

- Verse 2
(Take a number, take a sit, we've been here quite some time...)

e|---------------------------------------------------------|
B|---------------------------------------------------------|
G|------------999999999----------------------777777777777--|
D|-7777777777-999999999-444444444444-2222222-777777777777--|
A|-7777777777-777777777-444444444444-2222222-555555555555--|  
E|-5555555555-----------222222222222-0000000---------------|

(Take a shot at us and see how far you get...)

Guitar 1 
e|---------------------------------------------------------|
B|---------------------------------------------------------|
G|------------999999999----------------------777777777777--|
D|-7777777777-999999999-444444444444-2222222-777777777777--|
A|-7777777777-777777777-444444444444-2222222-555555555555--|  
E|-5555555555-----------222222222222-0000000---------------|

Guitar 2 
e|-7-7-7-7-7-9-7-7-7-7-7-7-9-9-9-9-9-7-7-7-9-9-9-9-9-------|
B|--5-5-5-5-5-7-5-5-5-5-5-5-7-7-7-7-7-5-5-5-7-7-7-7-7------|
G|---------------------------------------------------------|
D|---------------------------------------------------------|
A|---------------------------------------------------------|
E|---------------------------------------------------------|

- Chorus
(We’re not here to change the world...)

e|----------------------------------------|
B|----------------------------------------|
G|--7777777-9999999-----------------------|
D|--7777777-9999999-77777777-44444444-----|
A|--5555555-7777777-77777777-44444444-----|
E|------------------55555555-22222222-----|

(Maybe get a nap along the way....)

e|----------------------------------------------------|
B|----------------------------------------------------|
G|--7777777-9999999-11111111-99-777777-9999999--------|
D|--7777777-9999999-11111111-99-777777-9999999-7-6-4--|
A|--5555555-7777777-99999999-77-555555-7777777-7-6-4--|
E|---------------------------------------------5-4-2--|

(And then meet us at the bar and we'll let you by...)

Guitar 1
e|---------------------------------------|
B|---------------------------------------|
G|-7--9----------------------------------|
D|-7--9--77777772227777777222------------|
A|-5--7--77777772227777777222------------|
E|-------55555550005555555000------------|

         ^^^^^^^^^^^^^^^^^^^^
         Guitar 2 at this part

Guitar 2
e|----------------------------------------|
B|----------------------------------------|
G|------14141414-9999-14141414-99999------|
D|------xxxxxxxx-xxxx-xxxxxxxx-xxxxx------|
A|------12121212-7777-12121212-77777------|
E|----------------------------------------|

 - Bridge
(Hey jealousy, Is there somebody to paint the Gin...)

Guitar 1
e|----------------------------------------------------------|
B|----------------------------------------------------------|
G|----------44444444-77777777----------77777777-------------|
D|-44444444-44444444-77777777-77777777-77777777-77777777----|
A|-44444444-22222222-55555555-77777777-55555555-77777777----| 2X
E|-22222222-------------------55555555----------55555555----|
                     ^^^^^^^^^^^^^^^^^^^^^^^^^^^^^^^^^^^
                            Guitar 2 plays here

Guitar 2
e|-9-9-9-9-9-7-7-7-7-7-9-9-9-9-9-7-7-7-7-7--------|
B|--7-7-7-7-7-5-5-5-5-5-7-7-7-7-7-5-5-5-5-5-------|
G|------------------------------------------------|
D|------------------------------------------------|
A|------------------------------------------------| 2X
E|------------------------------------------------|

(For being happy, smiling, drinking...)

e|---------------------------------------------|
B|---------------------------------------------|
G|-444444444-4-4444444444-4-444444444----------|
D|-444444444-4-4444444444-4-444444444-222222---|
A|-222222222-2-2222222222-2-222222222-222222---|
E|------------------------------------000000---|

- Chorus
(We’re not here to change the world...)

e|----------------------------------------|
B|----------------------------------------|
G|--9999999---------44444444--------------|
D|--9999999-4444444-44444444-66666666-----|
A|--7777777-4444444-22222222-66666666-----|
E|----------2222222----------44444444-----|

(Maybe get a nap along the way....)

e|----------------------------------------------------|
B|----------------------------------------------------|
G|--9999999-1111111-13131313-11-999999-1111111--------|
D|--9999999-1111111-13131313-11-999999-1111111-9-8-6--|
A|--7777777-9999999-11111111-99-777777-9999999-9-8-6--|
E|---------------------------------------------7-6-4--|

(And then meet us at the bar, Yeah we'll be at the bar...)

e|---------------------------------|
B|---------------------------------|
G|-9999-1111-9999-1111-9-11-4------|
D|-9999-1111-9999-1111-9-11-4------|
A|-7777-9999-7777-9999-7-9--2------|
E|---------------------------------|

 - Final :

e|--------------------|
B|--------------------|
G|--------------------|
D|---------1-4--------|
A|--2--2--2-----------|
E|----2--2------------|
Suggest correction
Creating personal tab
Creating personal tab
You can edit any tab online and save it as your Personal.

You can edit, replace or remove any tab part or add personal notes – all changes will be seen only by you.

Personal tabs can be accessed anytime from any device, even offline.
Learn more »
comments
print report bad tab
4 comments total. Showing first comments.
0 reply
ryet8 10 Oct 31, 2013 05:44 PM

THIS IS SO GOOD. The only part that doesn't sound quite right is the last part of the Verse. the last 5 77 doesnt sound quite right but hey! Everything else in this tab sounds great and i wanted to play this so badly. THANK YOU

0 reply
EnatorX 10 Dec 14, 2013 09:12 AM

How the heck am i supposed to play this part:

in the (Maybe get on up along the way....) section? xD

guest
You may want to rate the tab now too:
select rating
Wanna post a correction for this tab? Suggest correction