Oops, an error
Loading. Please wait.

Emily bass

version 1
version 1

Whole song

Interactive

3,797 views 1 this week
no commentswrite comment
1 2 3 4 5
x 3
add to favorites
×
Save as Personal and add changes to this tab that will be seen only by you. Learn more ›
×
You can save this tab as Personal to edit and correct it or add notes. All changes will be seen only by you. Learn more »
launch autoscroll
font size
0
reset
guitar tuner
edit
Autoscroll
slow
fast
+/-
esc
set tempo
stop
Author
Difficulty
----------------------------------------------------------------------------
	                   Emily - Bowling For Soup
----------------------------------------------------------------------------

Tabbed By :jordan
e-mail:jordangrainger@hotmail.co.uk

Tuning:E,A,D,G

intro:

G|--------------------------------------------------------------------------|
D|--------------------------------------------------------------------------|
A|------------------4~~~~~~~~~~~~4----------------------5~~~~~~~~~~~~-------|
E|5~~~~~~~~~~~~5------------------------2~~~~~~~~~~~~2----------------------|

G|---------------------------------------------------------------------------|
D|---------------------------------------------------------------------------|
A|------------------4~~~~~~~~~~~~4--------------------5~~~~~~~~~~~~5-4h5p4h5-|
E|5~~~~~~~~~~~~5------------------------2~~~~~~~~~~~~2-----------------------|

Verse 1:

G|----------------------------------------------------------|
D|----------------------------------------------------------|
A|---------------4444444444444444---------------5555555555--|
E|555555555555555----------------222222222222222------------|

G|----------------------------------------------------------|
D|----------------------------------------------------------|
A|---------------4444444444444444---------------5555555555--|
E|555555555555555----------------222222222222222------------|

Chorus:

G|--------------------------------------------------------------------------|
D|--------------------------------------------------------------------------|
A|---------7-7-77---------5-5-55----------7-7-77----------5-5-55------------|
E|5-5-55----------7-7-77----------5-5-55----------7-7-77--------------------|

G|--------------------------------------------------------------------------|
D|--------------------------------------------------------------------------|
A|---------7-7-77---------5-5-55-----------------------------5-5-55--5-5-55-|
E|5-5-55----------7-7-77----------5-5-55----2-2-22----7-7-77----------------|

Bridge:

G|---------------------------------------------------------------------------|
D|---------------------------------------------------------------------------|
A|----7777----5555----7777----5555----7777----5555----7~~~-------5~555555555-|
E|5555----7777----5555----7777----5555----7777----5~~~----7~~~~~~------------|

Solo:

G|--------------------------------------------------------------------------|
D|--------------------------------------------------------------------------|
A|--------------44444444444444--------------55555555555555-4h5p4h5----------|
E|55555555555555--------------22222222222222--------------------------------|

Verse 2:

G|----------------------------------------------------------|
D|----------------------------------------------------------|
A|---------------4444444444444444---------------5555555555--|
E|555555555555555----------------222222222222222------------|

G|----------------------------------------------------------|
D|----------------------------------------------------------|
A|---------------4444444444444444---------------5555555555--|
E|555555555555555----------------222222222222222------------|

Chorus:

G|--------------------------------------------------------------------------|
D|--------------------------------------------------------------------------|
A|---------7-7-77---------5-5-55----------7-7-77----------5-5-55------------|
E|5-5-55----------7-7-77----------5-5-55----------7-7-77--------------------|

G|--------------------------------------------------------------------------|
D|--------------------------------------------------------------------------|
A|---------7-7-77---------5-5-55-----------------------------5-5-55--5-5-55-|
E|5-5-55----------7-7-77----------5-5-55----2-2-22----7-7-77----------------|

Bridge 2:

G|---------------------------------------------------------------------------|
D|---------------------------------------------------------------------------|
A|----7777----5555----7777----5555----7777----5555----7~~~-------5~555555555-|
E|5555----7777----5555----7777----5555----7777----5~~~----7~~~~~~------------|

(after bridge 2 and)Solo 2:

G|--------------------------------------------------------------------------|
D|--------------------------------------------------------------------------|
A|---------------4444444444444444---------------5555555555------------------|
E|555555555555555----------------222222222222222----------------------------|

G|--------------------------------------------------------------------------|
D|--------------------------------------------------------------------------|
A|---------------4444444444444444---------------5555555555------------------|
E|555555555555555----------------222222222222222----------------------------|

G|---------------------------------------------------------------------------|
D|---------------------------------------------------------------------------|
A|---------------4444444444444444---------------5555555555~~~~~~~~~~~~~~~~~5-|
E|555555555555555----------------222222222222222-----------------------------|

Chorus:

G|--------------------------------------------------------------------------|
D|--------------------------------------------------------------------------|
A|---------7-7-77---------5-5-55----------7-7-77----------5-5-55------------|
E|5-5-55----------7-7-77----------5-5-55----------7-7-77--------------------|

G|--------------------------------------------------------------------------|
D|--------------------------------------------------------------------------|
A|---------7-7-77---------5-5-55----------7-7-77----------5-5-55------------|
E|5-5-55----------7-7-77----------5-5-55----------7-7-77--------------------|

G|--------------------------------------------------------------------------|
D|--------------------------------------------------------------------------|
A|---------7-7-77---------5-5-55-----------------------------5-5-55--5-5-55-|
E|5-5-55----------7-7-77----------5-5-55----2-2-22----7-7-77----------------|


Let The Last Note ring its a great song have fun this is my first tab please rate


| /  slide up
| \  slide down
| h  hammer-on
| p  pull-off
| ~  Let Note Ring
| +  harmonic
| x  Mute note

            
            
Suggest correction
Creating personal tab
Creating personal tab
You can edit any tab online and save it as your Personal.

You can edit, replace or remove any tab part or add personal notes – all changes will be seen only by you.

Personal tabs can be accessed anytime from any device, even offline.
Learn more »
Give kudos to tab author, rate the tab!
1 2 3 4 5
comments
print report bad tab
guest
You may want to rate the tab now too:
select rating
Wanna post a correction for this tab? Suggest correction