Oops, an error
Loading. Please wait.

Feliz Navidad chords

67 views 6 this week
no commentswrite comment
1 2 3 4 5
3 more votes to show rating
add to favorites
×
Save as Personal and add changes to this tab that will be seen only by you. Learn more ›
×
You can save this tab as Personal to edit and correct it or add notes. All changes will be seen only by you. Learn more »
launch autoscroll
font size
0
reset
transpose
0
reset
simplify chords
display chords
guitar tuner
edit
Autoscroll
slow
fast
+/-
esc
set tempo
stop
Strumming
There is no strumming pattern for this song yet. and get +5 IQ
[Intro]
G5    A5    D5

[Verse 1]
          G5    A5
Feliz Navidad
           D5
Feliz Navidad
           G5
Feliz Navidad
         A5          D5
Prospero año y Felicidad

[Verse 2] 
(Palm Muted)
           G5    A5
Feliz Navidad
           D5
Feliz Navidad
           G5
Feliz Navidad
         A5          D5
Prospero año y Felicidad

[Verse 3]
                   G5              A5
I wanna wish you a Merry Christmas
                   D5
I wanna wish you a Merry Christmas
                   G5
I wanna wish you a Merry Christmas
         A5           D5          
From the bottom of my heart
                   G5              A5
I wanna wish you a Merry Christmas
                   D5
I wanna wish you a Merry Christmas
                   G5
I wanna wish you a Merry Christmas
         A5           D5          
From the bottom of my heart

[Verse 4] 
(Palm Muted)
           G5    A5
Feliz Navidad
           D5
Feliz Navidad
           G5
Feliz Navidad
         A5          D5
Prospero año y Felicidad

[Verse 4 - Lead Guitar]
e|---------------------------------|
B|---------------------------------|
G|-7--7-7--7--7--7--7-7--7-\-9-/-7-|
D|---------------------------------|
A|-5--5-5--5--5--5--5-5--5-\-7-/-7-|
E|---------------------------------|
      . .     .     . .

[Verse 5]
           G5    A5
Feliz Navidad
           D5
Feliz Navidad
           G5
Feliz Navidad
         A5          D5
Prospero año y Felicidad

[Verse 6] 
(Pick slide starts after "wish")
                   G5              A5
I wanna wish you a Merry Christmas
                   D5
I wanna wish you a Merry Christmas
                   G5
I wanna wish you a Merry Christmas
         A5           D5          
From the bottom of my heart
                   G5              A5
I wanna wish you a Merry Christmas
                   D5
I wanna wish you a Merry Christmas
                   G5
I wanna wish you a Merry Christmas
         A5           D5          
From the bottom of my heart

[Solo - Guitar 1] 
(Jaret Reddick) 
(Palm Muted)
G5    A5    D5
G5    A5    D5
G5    A5    D5
G5    A5    D5

[Solo - Guitar 2] 
(Chris Burney)
(Palm Muted)
e|-----------------------------------------------------------------------|
B|-----------------------------------------------------------------------|
G|-----------------------------------------------------------------------|
D|-----------------------------------------------------------------------|
A|-0-5--4-5-2----0-7--5-4-0----0-5--4-5-2--0-5-4-2--0-0--2---------------|
E|----------------------------------------------------------2------------|

e|-----------------------------------------------------------------------|
B|-----------------------------------------------------------------------|
G|-----------------------------------------------------------------------|
D|-----------------------------------------------------------------------|
A|-0-5--4-5-2----0-5--7-4-2---7-7--7-7-9--7-7--7-7-7-5-4--2-2-4-0----12--|
E|-----------------------------------------------------------------------|

[Solo]
(Kazoo)
(Jaret Reddick)
e|-----------------------------------------------------------------------|
B|-----------------------------------------------------------------------|
G|-2-7--6-7-4----2-9--6-7-2----2-7--6-7-4--2--7-6-4--2-2--4--------------|
D|-----------------------------------------------------------4-----------|
A|-----------------------------------------------------------------------|
E|-----------------------------------------------------------------------|

e|-----------------------------------------------------------------------|
B|-----------------------------------------------------------------------|
G|-2-7--6-7-4----2-7--9-6-4----9-9--9-9-11--9-9--9-9-9-7-6-4-4-6-2---\14-|
D|-----------------------------------------------------------------------|
A|-----------------------------------------------------------------------|
E|-----------------------------------------------------------------------|

[Verse 7]
                   G5              A5
I wanna wish you a Merry Christmas
                   D5
I wanna wish you a Merry Christmas
                   G5
I wanna wish you a Merry Christmas
         A5           D5          
From the bottom of my heart
                   G5              A5
I wanna wish you a Merry Christmas
                   D5
I wanna wish you a Merry Christmas
                   G5
I wanna wish you a Merry Christmas
         A5           D5          
From the bottom of my heart

[Verse 8]
           G5    A5
Feliz Navidad
           D5
Feliz Navidad
           G5
Feliz Navidad
         A5          D5
Prospero año y Felicidad

[Verse 9]
                   G5              A5
I wanna wish you a Merry Christmas
                   D5
I wanna wish you a Merry Christmas
                   G5
I wanna wish you a Merry Christmas
         A5           D5          
From the bottom of my heart


************************************

| /  Slide up
| \  Slide down
| .  Staccato

************************************

            
            
Suggest correction
Creating personal tab
Creating personal tab
You can edit any tab online and save it as your Personal.

You can edit, replace or remove any tab part or add personal notes – all changes will be seen only by you.

Personal tabs can be accessed anytime from any device, even offline.
Learn more »
Give kudos to tab author, rate the tab!
1 2 3 4 5
comments
print report bad tab
guest
You may want to rate the tab now too:
select rating
Wanna post a correction for this tab? Suggest correction