Oops, an error
Loading. Please wait.

Friends O Mine ukulele

version 1
version 1

Whole song

Interactive

433 views 1 this week
2 commentsread comments
1 2 3 4 5
2 more votes to show rating
add to favorites
×
Save as Personal and add changes to this tab that will be seen only by you. Learn more ›
×
You can save this tab as Personal to edit and correct it or add notes. All changes will be seen only by you. Learn more »
launch autoscroll
font size
0
reset
transpose
0
reset
display chords
guitar tuner
edit
Autoscroll
slow
fast
+/-
esc
set tempo
stop
Strumming
There is no strumming pattern for this song yet. and get +5 IQ
Friends O' Mine - Bowling For Soup - A Hangover You Don't Deserve - 2004


Chords Used:  
    C     G     Am    F     D                   
e|--0--|--3--|--0--|--1--|--2--|
B|--1--|--3--|--1--|--1--|--3--|
G|--0--|--0--|--2--|--2--|--2--|
D|--2--|--0--|--2--|--3--|--0--|
A|--3--|--2--|--0--|--3--|--x--|
E|--0--|--3--|--0--|--1--|-----|


Verse:

C			G
Well it was ugly but we made it this far.
Am		      C
Some have gone but I forget who they are.
F			C	      		     D     G
Now the hangovers are worse, but we get through them fine.


Chorus 1:

C		    G
Sleeping late, but were not lazy.
Am		    C
Getting older but, were still crazy.
F       C          D          G          C
I'm so glad that I have these friends of mine.


Verse:

Am				     G
It started out at a coffee shop in a most unlikely town.
Am				         G
And there were casualties but we made it out, anyhow.
C		              G
We stuck together through the good and bad times.
Am	              C
Pulp Fiction, Blazing Saddles, and Fast Times,
F      C           D          G          C
I'm so glad that I have these friends of mine.


Guitar Solo:

Rythm Guitar:

C  G  Am  C    F  Em  D  G  C


Guitar Solo:

Lead Guitar:

e|-----------------------------------------------------------3--------------|
B|-8--8--8---8-10----8~------------------------------------5----5-3---------|
G|---------9-------9--------5-5--5-7-9-10-9-7---5---5-5--5----------5-5~----|
D|------------------------7-----------------------7-------------------------|
A|--------------------------------------------------------------------------|
E|--------------------------------------------------------------------------|


Verse:
 
Am				 G
And jobs girls and obstacles did all but break us down.
Am                		G		  
Night clubs and broken bands in every major town.


Chorus 2:

F            C         
And I've got your back, you've got mine.
F           C          
Like Johnny Cash said "I walk the line."
F           C      D               G        C
And you can always count on me for one last beer.

C                        G                         
We saw the world and the world seemed smaller.
Am                         C
Were getting wider but not getting no taller,
F                            C           D     G
I know we've grown up just a little at a time.
C                      G
Were sleeping late but we're not lazy. 
Am                     C
Were getting older but we're still crazy.
F      C           D          G          C
I'm so glad that I have these friends of mine.


Outro:

C              D          G
So glad that I have these friends of mine,
C              D          G          C
So glad that I have these friends of mine.


and there it is! Really good song, man this song is so damn great... 
Oh well, please rate, post comments, and enjoy playing! :)


            
            
Suggest correction
Creating personal tab
Creating personal tab
You can edit any tab online and save it as your Personal.

You can edit, replace or remove any tab part or add personal notes – all changes will be seen only by you.

Personal tabs can be accessed anytime from any device, even offline.
Learn more »
Give kudos to tab author, rate the tab!
1 2 3 4 5
comments
print report bad tab
2 comments total.
0 reply
AlmostAbby 10 Feb 07, 2015 06:24 AM

A|-3--3--3---3-5----3--------------------------------------------------------|
E|----------------------1-1-1--3-5-6-5-3-1---1-1-1-1-------2-1-1-------------|
C|---------------------------------------------------------------------------|
G|---------2------2----------------------------------1-2-1-------------------|

first ever tab and just figured it out so there is probably and easier better verion

0 reply
AlmostAbby 10 Feb 07, 2015 06:25 AM

A|-3--3--3---3-5----3--------------------------------------------------------|
E|----------------------1-1-1--3-5-6-5-3-1---1-1-1-1-------2-1-1-------------|
C|---------------------------------------------------------------------------|
G|---------2------2----------------------------------1-2-1-------------------|

first ever tab and just figured it out so there is probably and easier better verion

guest
Wanna post a correction for this tab? Suggest correction