Oops, an error
Loading. Please wait.

I Melt With You tab

version 3
version 3

Whole song

  • This version uses power chords and sounds better o... Show more

Interactive

49 views 1 this week
no commentswrite comment
1 2 3 4 5
1 last vote to show rating
add to favorites
×
Save as Personal and add changes to this tab that will be seen only by you. Learn more ›
×
You can save this tab as Personal to edit and correct it or add notes. All changes will be seen only by you. Learn more »
launch autoscroll
font size
0
reset
how to read this tab
guitar tuner
edit
Autoscroll
slow
fast
+/-
esc
set tempo
stop
Author
Difficulty
About this tab version
This version uses power chords and sounds better on an electric guitar which is what it's meant for. Was this info helpful? Yes No
[Intro]

e|---------------------------------------------------------------------------|
B|---------------------------------------------------------------------------| x2
G|-9---13---9---------9---14---13---9----------------------------------------|
D|-9---13---9---------9---14---13---9---11-----------------------------------|
A|-7---11---9---------7---12---11---7---11-----------------------------------|
E|--------------------------------------9------------------------------------|

[Verse]

e|---------------------------------------------------------------------------|
B|---------------------------------------------------------------------------| x4
G|---------------------------------------------------------------------------|
D|---------------------------------------------------------------------------|
A|-11-------------11------12-------------12----------------------------------|
E|-----12--9--12------12------12--9--12-------12-----------------------------|

Moving forward using all my breath,
Being friends with you was never second best,
And I saw the world crashing all around your face,
Never really knowing it was always mesh and lace.

[Chorus]

e|---------------------------------------------------------------------------|
B|---------------------------------------------------------------------------| x4
G|-9---13---9---------9---14---13---9----------------------------------------|
D|-9---13---9---------9---14---13---9---11---9-------------------------------|
A|-7---11---9---------7---12---11---7---11---9-------------------------------|
E|--------------------------------------9----7-------------------------------|

I'll stop the world and melt with you
You've seen the difference and it's getting better all the time
And there's nothing you and I won't do
I'll stop the world and melt with you

[Verse 2]

e|---------------------------------------------------------------------------|
B|---------------------------------------------------------------------------| x4
G|---------------------------------------------------------------------------|
D|---------------------------------------------------------------------------|
A|-11-------------11------12-------------12----------------------------------|
E|-----12--9--12------12------12--9--12-------12-----------------------------|

(You should know better) Dream of better lives the kind which never hate
(You should see) Trapped in a state of imaginary grace
(You should know better) I made a pilgrimage to save this human's race
(You should see) Never comprehending a race that's long gone by

[Chorus]

e|---------------------------------------------------------------------------|
B|---------------------------------------------------------------------------| x4
G|-9---13---9---------9---14---13---9----------------------------------------|
D|-9---13---9---------9---14---13---9---11---9-------------------------------|
A|-7---11---9---------7---12---11---7---11---9-------------------------------|
E|--------------------------------------9----7-------------------------------|

(Let's stop the world) I'll stop the world and melt with you
(Let's stop the world) You've seen the difference and it's getting better all the time
And there's nothing you and I won't do
(Let's stop the world) I'll stop the world and melt with you

The future's open wide

e|---------------------------------------------------------------------------|
B|---------------------------------------------------------------------------| x2
G|-9---13---9---------9---14---13---9----------------------------------------|
D|-9---13---9---------9---14---13---9---11-----------------------------------|
A|-7---11---9---------7---12---11---7---11-----------------------------------|
E|--------------------------------------9------------------------------------|

[I'll stop the world]

[Chorus]

e|---------------------------------------------------------------------------|
B|---------------------------------------------------------------------------| x4
G|-9---13---9---------9---14---13---9----------------------------------------|
D|-9---13---9---------9---14---13---9---11---9-------------------------------|
A|-7---11---9---------7---12---11---7---11---9-------------------------------|
E|--------------------------------------9----7-------------------------------|

I'll stop the world and melt with you
(I'll stop the world) You've seen some changes and it's getting better all the time
And there's nothing you and I won't do
(I'll stop the world) I'll stop the world and melt with you

The future's open wide

I'll stop the world
I'll stop the world
I'll stop the world

I'll stop the world and melt with you
(I'll stop the world) You've seen the difference and it's getting better all the time
And there's nothing you and I won't do
(I'll stop the world) I'll stop the world and melt with you

e|---------------------------------------------------------------------------|
B|---------------------------------------------------------------------------| x2
G|-9---13---9---------9---14---13---9----------------------------------------|
D|-9---13---9---------9---14---13---9---11-----------------------------------|
A|-7---11---9---------7---12---11---7---11-----------------------------------|
E|--------------------------------------9------------------------------------|

I'll stop the world and melt with you (I'll stop the world and melt with you)
I'll stop the world and melt with you (I'll stop the world and melt with you)

            
            
Suggest correction
Creating personal tab
Creating personal tab
You can edit any tab online and save it as your Personal.

You can edit, replace or remove any tab part or add personal notes – all changes will be seen only by you.

Personal tabs can be accessed anytime from any device, even offline.
Learn more »
Give kudos to tab author, rate the tab!
1 2 3 4 5
comments
print report bad tab
guest
You may want to rate the tab now too:
select rating
Wanna post a correction for this tab? Suggest correction