Oops, an error
Loading. Please wait.

If You Come Back To Me solo tab

version 2
version 2

Solo

Whole song

50 views 1 this week
no commentswrite comment
1 2 3 4 5
3 more votes to show rating
add to favorites
×
Save as Personal and add changes to this tab that will be seen only by you. Learn more ›
×
You can save this tab as Personal to edit and correct it or add notes. All changes will be seen only by you. Learn more »
launch autoscroll
font size
0
reset
how to read this tab
guitar tuner
edit
Autoscroll
slow
fast
+/-
esc
set tempo
stop
Author
[Ending solo]

This guitar plays over the outro of the song. If you listen carefully you can hear it.

   ... along...
e|--------------------------------|
B|--------------9-9-9-9-9-9-9--10-|
G|--------------------------------|  (This is played once at the end of the vocals)
D|--------------------------------|
A|--------------------------------|
E|--------------------------------|


e|--------7------------------------7-----------------------------------------|
B|-9h10p9----10--9----9--10-9h10p9----10--9----7--9-----7--9--10\5-----------|
G|---------------------------------------------------9-----------------------|  (Repeat to fade)
D|---------------------------------------------------------------------------|
A|---------------------------------------------------------------------------|
E|---------------------------------------------------------------------------|

Great song, nice simple riff to finish it off.
Have fun playing! Corrections welcome :)


************************************

| h   Hammer-on
| p   Pull-off
| \   Slide down

************************************

            
            
Suggest correction
Creating personal tab
Creating personal tab
You can edit any tab online and save it as your Personal.

You can edit, replace or remove any tab part or add personal notes – all changes will be seen only by you.

Personal tabs can be accessed anytime from any device, even offline.
Learn more »
Give kudos to tab author, rate the tab!
1 2 3 4 5
comments
print report bad tab
guest
You may want to rate the tab now too:
select rating
Wanna post a correction for this tab? Suggest correction