Oops, an error
Loading. Please wait.

If You Come Back To Me tab

version 2
version 2

Whole song

4,980 views 6 this week
3 commentsread comments
1 2 3 4 5
x 7
add to favorites
×
Save as Personal and add changes to this tab that will be seen only by you. Learn more ›
×
You can save this tab as Personal to edit and correct it or add notes. All changes will be seen only by you. Learn more »
launch autoscroll
font size
0
reset
how to read this tab
guitar tuner
edit
Autoscroll
slow
fast
+/-
esc
set tempo
stop
Author
Difficulty
If You Come Back To Me
Bowling For Soup
The Great Buritto Extortion Case

Standard Tuning

Intro: (each bar is done twice)
  E5                E5
e|-----------------|-----------------|
B|-----------------|-----------------|
G|-9-9-9-9-9-9-9-9-|-9-9-9-9-9-9-9-9-|
D|-9-9-9-9-9-9-9-9-|-9-9-9-9-9-9-9-9-|
A|-7-7-7-7-7-7-7-7-|-7-7-7-7-7-7-7-7-|
E|-----------------|-----------------|

Verse: (each bar is done twice)
  E5                C#5               A5                F#5
e|-----------------|-----------------|-----------------|-----------------|
B|-----------------|-----------------|-----------------|-----------------|
G|-9-9-9-9-9-9-9-9-|-6-6-6-6-6-6-6-6-|-----------------|-----------------|
D|-9-9-9-9-9-9-9-9-|-6-6-6-6-6-6-6-6-|-7-7-7-7-7-7-7-7-|-4-4-4-4-4-4-4-4-|
A|-7-7-7-7-7-7-7-7-|-4-4-4-4-4-4-4-4-|-7-7-7-7-7-7-7-7-|-4-4-4-4-4-4-4-4-|
E|-----------------|-----------------|-5-5-5-5-5-5-5-5-|-2-2-2-2-2-2-2-2-|
 "You were..."     "u know i hate..." "was wrong..."   "answer the..."

  E5                C#5               A5                B5
e|-----------------|-----------------|-----------------|-----------------|
B|-----------------|-----------------|-----------------|-----------------|
G|-9-9-9-9-9-9-9-9-|-6-6-6-6-6-6-6-6-|-----------------|-----------------|
D|-9-9-9-9-9-9-9-9-|-6-6-6-6-6-6-6-6-|-7-7-7-7-7-7-7-7-|-9-9-9-9-9-9-9-9-|
A|-7-7-7-7-7-7-7-7-|-4-4-4-4-4-4-4-4-|-7-7-7-7-7-7-7-7-|-9-9-9-9-9-9-9-9-|
E|-----------------|-----------------|-5-5-5-5-5-5-5-5-|-7-7-7-7-7-7-7-7-|
 "you..."           "see..."          "ID that..."      "Dads name..."

Chorus:
  E5                B5                C#5               A5
e|-----------------|-----------------|-----------------|-----------------|
B|-----------------|-----------------|-----------------|-----------------|
G|-9-9-9-9-9-9-9-9-|-----------------|-6-6-6-6-6-6-6-6-|-----------------|
D|-9-9-9-9-9-9-9-9-|-9-9-9-9-9-9-9-9-|-6-6-6-6-6-6-6-6-|-7-7-7-7-7-7-7-7-|
A|-7-7-7-7-7-7-7-7-|-9-9-9-9-9-9-9-9-|-4-4-4-4-4-4-4-4-|-7-7-7-7-7-7-7-7-|
E|-----------------|-7-7-7-7-7-7-7-7-|-----------------|-5-5-5-5-5-5-5-5-|
 "hey..."           "okay..."         "back to u..."   "back to me..."   


Verse: (each bar is done twice)
  E5                C#5               A5                F#5
e|-----------------|-----------------|-----------------|-----------------|
B|-----------------|-----------------|-----------------|-----------------|
G|-9-9-9-9-9-9-9-9-|-6-6-6-6-6-6-6-6-|-----------------|-----------------|
D|-9-9-9-9-9-9-9-9-|-6-6-6-6-6-6-6-6-|-7-7-7-7-7-7-7-7-|-4-4-4-4-4-4-4-4-|
A|-7-7-7-7-7-7-7-7-|-4-4-4-4-4-4-4-4-|-7-7-7-7-7-7-7-7-|-4-4-4-4-4-4-4-4-|
E|-----------------|-----------------|-5-5-5-5-5-5-5-5-|-2-2-2-2-2-2-2-2-|
 "Voice is..."      "funny how..."    "phone..."        "JFK ever..."

  E5                C#5               A5                B5
e|-----------------|-----------------|-----------------|-----------------|
B|-----------------|-----------------|-----------------|-----------------|
G|-9-9-9-9-9-9-9-9-|-6-6-6-6-6-6-6-6-|-----------------|-----------------|
D|-9-9-9-9-9-9-9-9-|-6-6-6-6-6-6-6-6-|-7-7-7-7-7-7-7-7-|-9-9-9-9-9-9-9-9-|
A|-7-7-7-7-7-7-7-7-|-4-4-4-4-4-4-4-4-|-7-7-7-7-7-7-7-7-|-9-9-9-9-9-9-9-9-|
E|-----------------|-----------------|-5-5-5-5-5-5-5-5-|-7-7-7-7-7-7-7-7-|
 "all alone..."    "out of place..."  "smiles..."      "do so well..."

  E5                C#5               A5                B5
e|-----------------|-----------------|-----------------|-----------------|
B|-----------------|-----------------|-----------------|-----------------|
G|-9-9-9-9-9-9-9-9-|-6-6-6-6-6-6-6-6-|-----------------|-----------------|
D|-9-9-9-9-9-9-9-9-|-6-6-6-6-6-6-6-6-|-7-7-7-7-7-7-7-7-|-9-9-9-9-9-9-9-9-|
A|-7-7-7-7-7-7-7-7-|-4-4-4-4-4-4-4-4-|-7-7-7-7-7-7-7-7-|-9-9-9-9-9-9-9-9-|
E|-----------------|-----------------|-5-5-5-5-5-5-5-5-|-7-7-7-7-7-7-7-7-|
 "heres..."         "break down..."   "not gonna..."     "hurricane..."

Interlude:
  E5             B5             A5
e|--------------|--------------|----------------|
B|--------------|--------------|----------------|
G|-9------------|--------------|----------------|
D|-9------------|-9------------|-7--------------|
A|-7------------|-9------------|-7--------------|
E|--------------|-7------------|-5--------------|
 "maybe i..."   "scorpions..."  "to remind..."


Chorus:
  E5                B5                C#5               A5
e|-----------------|-----------------|-----------------|-----------------|
B|-----------------|-----------------|-----------------|-----------------|
G|-9-9-9-9-9-9-9-9-|-----------------|-6-6-6-6-6-6-6-6-|-----------------|
D|-9-9-9-9-9-9-9-9-|-9-9-9-9-9-9-9-9-|-6-6-6-6-6-6-6-6-|-7-7-7-7-7-7-7-7-|
A|-7-7-7-7-7-7-7-7-|-9-9-9-9-9-9-9-9-|-4-4-4-4-4-4-4-4-|-7-7-7-7-7-7-7-7-|
E|-----------------|-7-7-7-7-7-7-7-7-|-----------------|-5-5-5-5-5-5-5-5-|
 "hey..."           "okay..."         "back to u..."   "back to me..." 

  E5                B5                C#5               A5
e|-----------------|-----------------|-----------------|-----------------|
B|-----------------|-----------------|-----------------|-----------------|
G|-9-9-9-9-9-9-9-9-|-----------------|-6-6-6-6-6-6-6-6-|-----------------|
D|-9-9-9-9-9-9-9-9-|-9-9-9-9-9-9-9-9-|-6-6-6-6-6-6-6-6-|-7-7-7-7-7-7-7-7-|
A|-7-7-7-7-7-7-7-7-|-9-9-9-9-9-9-9-9-|-4-4-4-4-4-4-4-4-|-7-7-7-7-7-7-7-7-|
E|-----------------|-7-7-7-7-7-7-7-7-|-----------------|-5-5-5-5-5-5-5-5-|
 "oh..."            "go..."           "broken..."       "both..."

Bridge:
  E5                C#5               A5                B5  
e|-----------------|-------------------|-----------------|-----------------|
B|-----------------|-------------------|-----------------|-----------------|
G|-9---------------|-6-----------------|-----------------|-----------------|
D|-9---------------|-6-----------------|-7---------------|-9---------------|
A|-7---------------|-4-----------------|-7---------------|-9---------------|
E|-----------------|-------------------|-5---------------|-7---------------|
  "we were.."      "no happy ending.."  "you asked me.."  "past david.."


 E5                C#5               A5                B5
e|-----------------|-----------------|-----------------|-----------------|
B|-----------------|-----------------|-----------------|-----------------|
G|-9-9-9-9-9-9-9-9-|-6-6-6-6-6-6-6-6-|-----------------|-----------------|
D|-9-9-9-9-9-9-9-9-|-6-6-6-6-6-6-6-6-|-7-7-7-7-7-7-7-7-|-9-9-9-9-9-9-9-9-|
A|-7-7-7-7-7-7-7-7-|-4-4-4-4-4-4-4-4-|-7-7-7-7-7-7-7-7-|-9-9-9-9-9-9-9-9-|
E|-----------------|-----------------|-5-5-5-5-5-5-5-5-|-7-7-7-7-7-7-7-7-|
 "david blain..."   "lance..."       "harry potter..."  "i used to..."

  E5                C#5               A5                B5
e|-----------------|-----------------|-----------------|-----------------|
B|-----------------|-----------------|-----------------|-----------------|
G|-9-9-9-9-9-9-9-9-|-6-6-6-6-6-6-6-6-|-----------------|-----------------|
D|-9-9-9-9-9-9-9-9-|-6-6-6-6-6-6-6-6-|-7-7-7-7-7-7-7-7-|-9-9-9-9-9-9-9-9-|
A|-7-7-7-7-7-7-7-7-|-4-4-4-4-4-4-4-4-|-7-7-7-7-7-7-7-7-|-9-9-9-9-9-9-9-9-|
E|-----------------|-----------------|-5-5-5-5-5-5-5-5-|-7-7-7-7-7-7-7-7-|
 "Sigfried..."      "Shaquille..."   "i asked you..."   "your greatest..."


Chorus:
  E5                B5                C#5               A5
e|-----------------|-----------------|-----------------|-----------------|
B|-----------------|-----------------|-----------------|-----------------|
G|-9-9-9-9-9-9-9-9-|-----------------|-6-6-6-6-6-6-6-6-|-----------------|
D|-9-9-9-9-9-9-9-9-|-9-9-9-9-9-9-9-9-|-6-6-6-6-6-6-6-6-|-7-7-7-7-7-7-7-7-|
A|-7-7-7-7-7-7-7-7-|-9-9-9-9-9-9-9-9-|-4-4-4-4-4-4-4-4-|-7-7-7-7-7-7-7-7-|
E|-----------------|-7-7-7-7-7-7-7-7-|-----------------|-5-5-5-5-5-5-5-5-|
 "hey..."           "okay..."         "back to u..."   "back to me..." 

  E5                B5                C#5               A5
e|-----------------|-----------------|-----------------|-----------------|
B|-----------------|-----------------|-----------------|-----------------|
G|-9-9-9-9-9-9-9-9-|-----------------|-6-6-6-6-6-6-6-6-|-----------------|
D|-9-9-9-9-9-9-9-9-|-9-9-9-9-9-9-9-9-|-6-6-6-6-6-6-6-6-|-7-7-7-7-7-7-7-7-|
A|-7-7-7-7-7-7-7-7-|-9-9-9-9-9-9-9-9-|-4-4-4-4-4-4-4-4-|-7-7-7-7-7-7-7-7-|
E|-----------------|-7-7-7-7-7-7-7-7-|-----------------|-5-5-5-5-5-5-5-5-|
 "oh..."            "go..."           "broken..."       "both..."

  F#5
e|---------------------------|
B|---------------------------|
G|---------------------------|
D|--4------------------------|
A|--4------------------------|
E|--2------------------------|
  "and i can still hear..."


Solo / Outro:
this is played over the chorus chords until it fades out

   E5                        B5                      
e|-------7--5-4------------|-------7--5-4------------|
B|-5-7-5--------5--5-5-0-7-|-5-7-5--------5--5-5-0-7-|
G|-------------------------|-------------------------|
D|-------------------------|-------------------------|
A|-------------------------|-------------------------|
E|-------------------------|-------------------------|

  C#5                        A5
e|-------7--5-4------------|-----4-5-----------------|
B|-5-7-5--------5--5-5-0-7-|-5-7-----4/5---5-5-0-7---|
G|-------------------------|-------------------------|
D|-------------------------|-------------------------|
A|-------------------------|-------------------------|
E|-------------------------|-------------------------|

Thats it! if you find any mistakes leave a comment. And Rate it please!
Thanks.

Heres a copy of the lyrics too.

You were right all along.
You know I hate that, admitting I was wrong.
So I don't answer the phone when it's you.
It's funny when I see the caller I.D.
Shows the phone line's still in your dad's name.
So hey, I'm doing OK.

And I'll get back to you if you come back to me.
Your voice is so Marilyn Monroe.
It's funny how that makes me wanna smash the phone.
I wonder if J.F.K. ever felt this way.
All alone, like Summer when it snows.
So out of place, so out of those fake smiles.
I used to do so well.
And here's the part of the song
Where I start to break down like my broken heart.
But it's not gonna matter
The lines are all down from a hurricane
They should have named after you.
Maybe I should get a Scorpions ringtone
To remind me of you.

CHORUS
So hey, I'm doing OK.
And I'll get back to you if you come back to me.
Oh, here we go.
Just like a broken record skippin' apart
That we both oughta know by heart.
(2nd time:
And I can still hear you singing along)

We were right there,
And now it seems so tragic.
No happy ending,
Now this whole thing seems so drastic.
You asked me 20 times
Where we could find our magic.
Ask David Copperfield or even Rick O'Casic.
David Blaine,(where's the magic?)
Lance Burton, (where's the magic?)
Harry Potter,(where's the magic?)
I used to think pop rocks were magic.
Sigfried and Roy, (where's the magic?)
Shaquille O'Neal,
(why'd you leave the magic?)
You asked me 20 times,
Or was it 28,
And your greatest trick ever
Was your great escape.

            
            
Suggest correction
Creating personal tab
Creating personal tab
You can edit any tab online and save it as your Personal.

You can edit, replace or remove any tab part or add personal notes – all changes will be seen only by you.

Personal tabs can be accessed anytime from any device, even offline.
Learn more »
comments
print report bad tab
3 comments total.
+1 reply
d1271304 10 Apr 21, 2007 07:23 AM

Great Band, Great Song, Great Tab Its like Magic

0 reply
d1271304 10 Apr 21, 2007 07:23 AM

but you forgot all the lalas

0 reply
Brooklynn 10 Jun 18, 2007 02:52 PM

An awesome tab--just great! I can play this song great now! Thanks!

guest
You may want to rate the tab now too:
select rating
Wanna post a correction for this tab? Suggest correction