Oops, an error
Loading. Please wait.

Im Gay tab

version 3
version 3

Whole song

Interactive

8,363 views 1 this week
1 commentread comment
1 2 3 4 5
x 6
add to favorites
×
Save as Personal and add changes to this tab that will be seen only by you. Learn more ›
×
You can save this tab as Personal to edit and correct it or add notes. All changes will be seen only by you. Learn more »
launch autoscroll
font size
0
reset
how to read this tab
guitar tuner
edit
Autoscroll
slow
fast
+/-
esc
set tempo
stop
Author
Title: I'm Gay
Artist: Bowling for Soup
Tuning: Standard
Tabbed by: azz (azwan082@gmail.com)

intro 1st part
|----------------------------------|
|----------------------------------|
|---------9-9-9-9------------------|
|-9-9-9-9-9-9-9-9-9-9-9-9-4-4-4-4--|
|-9-9-9-9-7-7-7-7-9-9-9-9-4-4-4-4--|
|-7-7-7-7---------7-7-7-7-2-2-2-2--|

intro (solo) 1st part
|----------------------------|----------------------------|
|-7--9--7---------7--9--7----|-7--9--7--------------------|
|---------9--8--9---------6--|---------9--8--6------------|
|----------------------------|-----------------9--8--6----|
|----------------------------|-------------------------9--|
|----------------------------|----------------------------|

intro 2nd part
|-----------------------------|
|-----------------------------|
|-4-4-----------4-4-----------|
|-4-4--2-2-4-4--4-4--2-2-4-4--|
|-2-2--2-2-4-4--2-2--2-2-4-4--|
|------0-0-2-2-------0-0-2-2--|

intro (solo) 2nd part
|----------------------|-------------------------|
|----------------------|----------------------7--|
|-8--------8h9-8h9-8-6-|-8--------8h9-8h9-8h9----|
|---9---11-------------|---9---11----------------|
|-----9----------------|-----9-------------------|
|----------------------|-------------------------|

verse
|------------------------------------------------------------------|
|------------------------------------------------------------------|
|-4-4-4-4---------9-9-9-9---------4-4-4-4---------9-9-9-9-9-9-9-9--|
|-4-4-4-4-4-4-4-4-9-9-9-9-4-4-4-4-4-4-4-4-4-4-4-4-9-9-9-9-9-9-9-9--|
|-2-2-2-2-4-4-4-4-7-7-7-7-4-4-4-4-2-2-2-2-4-4-4-4-7-7-7-7-7-7-7-7--|
|---------2-2-2-2---------2-2-2-2---------2-2-2-2------------------|

prechorus
|--------------------|
|----------------9~--|
|----------------9~--|
|-4-4-4-4-2-2-2--9~--|
|-4-4-4-4-2-2-2--7~--|
|-2-2-2-2-0-0-0------|

chorus
|-----------------------------------------------------|
|-----------------------------------------------------|
|-4-4-4-4---------9~---9~---4-4-4-4---------9~---9~---|
|-4-4-4-4-4-4-4-4-9~---9~---4-4-4-4-4-4-4-4-9~---9~---|
|-2-2-2-2-4-4-4-4-7~---7~---2-2-2-2-4-4-4-4-7~---7~---|
|---------2-2-2-2-------------------2-2-2-2-----------|

intro 2nd part
verse
chorus

bridge
|----------------------------------|
|----------------------------------|
|-4-4-4-4--------------------------|
|-4-4-4-4-4-4-4-4-2-2-2-2-2-2-2-2--|
|-2-2-2-2-4-4-4-4-2-2-2-2-2-2-2-2--|
|---------2-2-2-2-0-0-0-0-0-0-0-0--|

bridge (solo)
|----------------------------------------------------------|
|-----7-9--------------------------------7-9---------------|
|-8-------6---6-8-6--4---4--6--8--9--8-------6---6-8-6--4--|
|----------------------------------------------------------|
|----------------------------------------------------------|
|----------------------------------------------------------|

before outro
|--------------------|
|----------------9~--|
|----------------9~--|
|-4-4-4-4-2-2-2--9~--|
|-4-4-4-4-2-2-2--7~--|
|-2-2-2-2-0-0-0------|

outro (repeatedly)
|----------------------------------|
|----------------------------------|
|-4-4-4-4--------------------------|
|-4-4-4-4-4-4-4-4-2-2-2-2-2-2-2-2--|
|-2-2-2-2-4-4-4-4-2-2-2-2-2-2-2-2--|
|---------2-2-2-2-0-0-0-0-0-0-0-0--|

            
            
Suggest correction
Creating personal tab
Creating personal tab
You can edit any tab online and save it as your Personal.

You can edit, replace or remove any tab part or add personal notes – all changes will be seen only by you.

Personal tabs can be accessed anytime from any device, even offline.
Learn more »
comments
print report bad tab
1 comment total.
0 reply
guitar-noob=P 41 Aug 25, 2009 12:08 AM

this song is funny as and ive only tried the solo parts and so far this awesome =)

guest
You may want to rate the tab now too:
select rating
Wanna post a correction for this tab? Suggest correction