Oops, an error
Loading. Please wait.

Lets Go To The Pub bass

187 views 1 this week
1 commentread comment
1 2 3 4 5
2 more votes to show rating
add to favorites
×
Save as Personal and add changes to this tab that will be seen only by you. Learn more ›
×
You can save this tab as Personal to edit and correct it or add notes. All changes will be seen only by you. Learn more »
launch autoscroll
font size
0
reset
guitar tuner
edit
Autoscroll
slow
fast
+/-
esc
set tempo
stop
-------------------------------------------------------------------------------
                        Lets go to the pub - Bowling For Soup
-------------------------------------------------------------------------------
Tabbed by: Dundunleavy 
E-mail: 

Tuning: Drop D

intro

G|---------------------------------------------|
D|---------------------------------------------|
A|-----0---0---------00000000--------00000000--|
D|---2---2---22222222--------22222222----------|

verse

G|--------------------------------------------------------------------------------------------|
D|--------------------------------------------------------------------------------------------|
A|--0-0000--------2-2222-4-4444-0-0000--------2-2222-0-0000-0-0000--------2-2222-4-4444-0~-2--|
D|--------2-2222-----------------------2-2222---------------------2-2222----------------------|

chorus

G|---------------------------|
D|---------------------------|
A|---0--2~---0--2~-4~--0~-2--|
D|-2--2----2--2------6~------|

intro
verse
chorus

bridge

G|------------------------------------------------------|
D|------------------------------------------------------|
A|---0---0---0---0--444-000-----22222222-444-000-----2--|
D|-2---2---2---2------------666------------------666----|

chorus 2

G|--------------------------------------------------------------------------|
D|--------------------------------------------------------------------------|
A|----------00000000----------22222222----------00000000----------22222222--|
D|-22222222----------22222222----------22222222----------22222222-----------|

G|--------------------------------------------------------------------------|
D|--------------------------------------------------------------------------|
A|-44444444----------00000000-22222222-44444444----------00000000-2---------|
D|----------66666666----------------------------66666666--------------------|

ending

G|------------------|
D|------------------|
A|---0---0---0---0--|
D|-2---2---2---2----|



| /  slide up
| \  slide down
| h  hammer-on
| p  pull-off
| ~  vibrato
| +  harmonic
| x  Mute note
===============================================================================

            
            
Suggest correction
Creating personal tab
Creating personal tab
You can edit any tab online and save it as your Personal.

You can edit, replace or remove any tab part or add personal notes – all changes will be seen only by you.

Personal tabs can be accessed anytime from any device, even offline.
Learn more »
Give kudos to tab author, rate the tab!
1 2 3 4 5
comments
print report bad tab
1 comment total.
0 reply
samuel.shim.75 62 Aug 23, 2017 12:40 PM

This song can be played in standard tuning. I don't know why you decided to write the tab in Drop D. It makes it tricky to read and most people are tuned to standard (E A D G). Otherwise, it's a good tab...

guest
You may want to rate the tab now too:
select rating
Wanna post a correction for this tab? Suggest correction