Oops, an error
Loading. Please wait.

My Hometown Bass Tab

version 1
version 1

Whole song

Interactive

952 views 1 this week
no commentswrite comment
1 2 3 4 5
please rate
add to favorites
launch autoscroll
font size
0
reset
guitar tuner
Autoscroll
slow
fast
+/-
esc
set tempo
stop
Help us to improve Ultimate-Guitar.com Take our survey!
×
Author
/ =slide up
\ =slide down

Intro (bass comes in at 0:48)
G:-----------------------------------------|
D:-----------------------1010101010101010\-|
A:-------333-333-333-333/------------------|
E:-1--3------------------------------------|

Verse x2
G:-----------------------------------------------------------------|
D:-----------------------------------------------------------------|
A:-333-333-333-333-----------------333-333-333-333-----------------|
E:-----------------111-111-111-111-----------------333-333-111-111-|

Chorus x1
G:-----------------------------------------------------------------|
D:-----------------------------------------------------------------|
A:-333-333-----333-----------------333-333-----333-----------------|
E:---------333-----111-111-111-111---------333-----111-111-111-111-|

G:--------------------------------------------------|
D:--------------------------------------------------|
A:-------------------------0~-------333-333-333-333-|
E:-333-333-333-333-111-111----1--3------------------|

Bridge
"You know I cant count how many..."
G:-----------------------------------------------------------------|
D:-----------------------------------------------------------------|
A:-----------------333-333-333-333-----------------333-333-222-000-|
E:-111-111-333-333-----------------111-111-333-333-----------------|

"And where were you back in the day?"
G:-----------------------------------------------------------------|
D:-----------------------------------------------------------------|
A:-----------------333-333-333-333-----------------333-222-000-----|
E:-111-111-333-333-----------------111-111-333-333-------------333-|

G:---------------------------------|
D:---------------------------------|
A:---------------------------------|
E:-111-111-111-111-333-333-333-333-|

"Th-th-th-th-th-th-th-th this song goes out..."
G:-----------------|
D:-----------------|
A:-3-3-3-3-3-3-3-3-|
E:-----------------|

Verse     x2
Chorus    x1
(slide up to the 12th fret on the A string when you hold the A open)

Outro
G:-------------------------------------------------|
D:-------------------------------------------------|
A:-333-333-333-333-----------------333-320---------|
E:-----------------111-111-333-333---------333-333-|

G:----------------------------|
D:----------------------------|
A:-----------------3~2-0------|
E:-111-111-333-333-------3-1~-|
Suggest correction
Give kudos to tab author, rate the tab!
1 2 3 4 5
comments
print report bad tab
guest
You may want to rate the tab now too:
select rating
Please do not post tabs as comments. Select "correction" instead!