Oops, an error
Loading. Please wait.

My Wena bass

version 2
version 2

Whole song

Interactive

2,237 views 3 this week
4 commentsread comments
1 2 3 4 5
x 4
add to favorites
×
Save as Personal and add changes to this tab that will be seen only by you. Learn more ›
×
You can save this tab as Personal to edit and correct it or add notes. All changes will be seen only by you. Learn more »
launch autoscroll
font size
0
reset
guitar tuner
edit
Autoscroll
slow
fast
+/-
esc
set tempo
stop
Author
Difficulty
This is my first tab, and i think that it is almost perfect :)


[---------------------------------]
[---------------------------------]
[---------------------------------]
[-3-3-3-3-3-3-3-3-0-0-0-0-0-0-0-0-] 


[---------------------------------]
[---------------------------------]
[---------------------------------]
[-3-3-3-3-3-3-3-3-0-0-0-0-0-0-0-0-] 

  Her name is wena...                   
[-------------------------------------------------------------------]
[-------------------------------------------------------------------]
[---------------------------------3-3-3-3-3-3-3-3-3-5-5-5-5-5-5-5-5-]
[-3-3-3-3-3-3-3-3-0-0-0-0-0-0-0-0-----------------------------------]

                    
[-------------------------------------------------------------------]
[-------------------------------------------------------------------]
[---------------------------------3-3-3-3-3-3-3-3-3-5-5-5-5-5-5-5-3-]
[-3-3-3-3-3-3-3-3-0-0-0-0-0-0-0-0-----------------------------------]


[-----------------------------------------------------------------]
[-----------------------------------------------------------------]
[-2-2-2-2-2-2-2-2-----------------2-2-2-2-2-2-2-2-----------------]
[-----------------0-0-0-0-0-0-0-0---------------------------------]


[---------------------------------]
[---------------------------------]
[---3-3-3-5-5---------------------]
[---------------------------------]
My wena is lonely...

[--------------------------------------------]
[--------------------------------------------]
[-3-3-3-3---------5-5-5-5-5-5-5-5------------]
[---------3-3-3-3----------------------------]

[--------------------------------------------]
[--------------------------------------------]
[-3-3-3-3---------5-5-5-5-5-5-5-5------------]
[---------3-3-3-3----------------------------]


[---------------------------------------------------]
[---------------------------------------------------]
[-3-3-3-3---------2-2-2---------3-3-3-3-3-3-3-3-5-5-]
[---------3-3-3-3-------0-0-0-0---------------------]

[---------------------------------]
[---------------------------------]
[---------------------------------]
[-3-3-3-3-3-3-3-3-0-0-0-0-0-0-0-0-] 


[---------------------------------]
[---------------------------------]
[-------------------------7-5-2---]
[-3-3-3-3-3-3-3-3-0-0-0-0---------] 

 My little wena...                      
[-------------------------------------------------------------------]
[-------------------------------------------------------------------]
[---------------------------------3-3-3-3-3-3-3-3-3-5-5-5-5-5-5-3-2-]
[-3-3-3-3-3-3-3-3-0-0-0-0-0-0-0-0-----------------------------------]

                    
[-------------------------------------------------------------------]
[-------------------------------------------------------------------]
[---------------------------------3-3-3-3-3-3-3-3-3-5-5-7-7-9-9-7-7-]
[-3-3-3-3-3-3-3-3-0-0-0-0-0-0-0-0-----------------------------------]


[-----------------------------------------------------------------]
[-----------------------------------------------------------------]
[-2-2-2-2-2-2-2-2-----------------2-2-2-2-2-2-2-2---3-3-3-5-5-----]
[-----------------0-0-0-0-0-0-0-0---------------------------------]


My wena is lonely...
[-------------------------------------------------------------------]
[-------------------------------------------------------------------]
[-3-3-3-3---------5-5-5-5-5-5-5-5-3-3-3-3---------5-5-5-5-5-5-5-5-5-]
[---------3-3-3-3-------------------------3-3-3-3-------------------]


[-------------------------------------------------------------------]
[-------------------------------------------------------------------]
[-3-3-3-3---------2-2-2---------3-3-3-3-3-3-3-3-5-5-5-5-5-5-5-5-----]
[---------3-3-3-3-------0-0-0-0-------------------------------------]



[-------------------------------------------]
[-------------------------------------------]
[-3-3-3-3-3-3-3-3-5-5-----------------------]
[-------------------------------------------]

Sometimes she can't sleep at night...
[-----------------------------------------------------------------]
[-----------------------------------------------------------------]
[-0-0-0-0-0-0-2-3-5-5-5-5-5-5-5-2---------------------------------]
[---------------------------------3-3-2-2-0-0-5-5-2-0-------------]


[-----------------------------------------------------------------]
[---------------2-----------------5---5-4---4-2---2-0-0-----------]
[-0-0-0-0-0-2-3---5-5-5-5-5-5-5-2---5-----5-----2-------2-0-------]
[-----------------------------------------------------------------]



[------------------------------------------------------------------]
[------------------------------------------------------------------]
[-3-3-3-3-3---3-4-5-5-5-5-5-5-5-4-3-3-3-3-3-3-3-4-5-5-7-7-9-9-7-5--]
[-----------3------------------------------------------------------]

[------------------------------------------------------------------]
[---------------------------2-2-5-5-2-2-----5-7-10-----------------]
[-------------5-5-2-0---3-3-------------5--------------------------]
[-3-3-2-2-0-0------------------------------------------------------]

Pause: plays only guitar
... tight, oh, my wena...
[---------------------------------------------------]
[---------------------------------------------------]
[-2-2-2-------------3-3-3-3-3-3-3-3-5-5-7-7-9-9-5---]
[-------0-------------------------------------------]

My wena is lonely...
[--------------------------------------------]
[--------------------------------------------]
[-3-3-3-3---------5-5-7-9-10-3-3-3-3---------]               
[---------3-3-3-3--------------------3-3-3-3-]

[------------------------]
[-----4---7---5----------]
[-5-5---5---5---5--------]
[------------------------]

[-------------------------------------------------------------------]
[-------------------------------------------------------------------]
[-3-3-3-3---------2-2-2---------3-3-3-3-3-3-3-4-5-5-----------------]
[---------3-3-3-3-------0-0-0-0------------------------3------------]

            
            
Suggest correction
Creating personal tab
Creating personal tab
You can edit any tab online and save it as your Personal.

You can edit, replace or remove any tab part or add personal notes – all changes will be seen only by you.

Personal tabs can be accessed anytime from any device, even offline.
Learn more »
comments
print report bad tab
4 comments total. Showing first comments.
0 reply
mikedexter 95 Sep 23, 2009 09:10 AM

i have much better tab, so i won' t delete it

0 reply
frenchtoast218 177 Sep 23, 2009 04:56 PM

you pretty much copied all of my tab

+1 reply
Craig-Bass1995 177 Oct 07, 2009 10:54 AM

This Is A Great Tab And I Don't Care Who Copied It From Who; It Still Rules. I See Nothing Wrong With This At All. You Have It In The Right Tuning And All The Notes Seem To Be Right! Good Job!!

guest
You may want to rate the tab now too:
select rating
Wanna post a correction for this tab? Suggest correction