Oops, an error
Loading. Please wait.

Normal Chicks Tab

2,994 views 15 this week
no commentswrite comment
1 2 3 4 5
excellent!
x 5
add to favorites
launch autoscroll
font size
0
reset
how to read this tab
guitar tuner
Tab Pro tools
  • play this tab
  • loop segment
  • change instrument
  • show fretboard
  • metronome
Autoscroll
slow
fast
+/-
esc
set tempo
stop
Contributor
----------------------------------------------------------------
                 Normal Chicks - Bowling For Soup
----------------------------------------------------------------

Tabbed by: Fabio-BlenderBR
 - Please rate and send me your feedback -

 - Intro :

e|--------------------|
B|--------------------|
G|-7--9/11/9----------|
D|-7--9/11/9--9-9-7---|
A|-5--7/9-/7--9-9-7---|  2x
E|------------7-7-5---|

 - Verse :
(You're not Pamela Lee, But you look good to me...)

e|--------------------|
B|--------------------|
G|-7--9/11/9----------|
D|-7--9/11/9--9-9-7---|
A|-5--7/9-/7--9-9-7---|  4x
E|------------7-7-5---|

(You're no Jessica Biel, But you've got sex appeal...)

Guitar 1
e|--------------------|
B|--------------------|
G|-7--9/11/9----------|
D|-7--9/11/9--9-9-7---|
A|-5--7/9-/7--9-9-7---|  4x
E|------------7-7-5---|

Guitar 2
e|-------------------------|
B|-------------------------|
G|-7777--9999--------------|
D|-7777--9999--9999-7777---|
A|-5555--7777--9999-7777---|  4x
E|-------------7777-5555---|
  xxxxx  xxxx  xxxx xxxx   > Palm Muted

 - Pre Chorus :
(And you've got great natural boobies)

e|-------|
B|-------|
G|-------|
D|-5~--5-|
A|-5~--5-| 
E|-3~--3-|

 - Chorus :
(I like you in sweatpants, no makeup...)

Guitar 1
e|---------------------------------------------|
B|---------------------------------------------|
G|-----------------4444------------------------|
D|--5555-4444-7777-4444----5555-4444-77777777--|
A|--5555-5555-7777-2222----5555-5555-77777777--|
E|--3333-2222-5555---------3333-2222-55555555--|

Guitar 2
      ^    ^    ^            ^    ^     ^  > Play exactly at the marked parts
e|----3----2----0------------3----2-----0---|
B|-----3----3----2------------3----3-----2--|
G|------------------------------------------|
D|------------------------------------------|
A|------------------------------------------| 
E|------------------------------------------|  


(There's just gotta be a heaven above...)

e|-----------------------------------|
B|-----------------------------------|
G|-4444-6666-7777--------------------|
D|-4444-6666-7777-5555-4444-2222-7---|
A|-2222-4444-5555-5555-5555-2222-7---|
E|----------------3333-2222-0000-5---|

 - Intro :

e|--------------------|
B|--------------------|
G|-7--9/11/9----------|
D|-7--9/11/9--9-9-7---|
A|-5--7/9-/7--9-9-7---|  2x
E|------------7-7-5---|

 - Verse 2 :
(Not quite Lucy Liu, But you love Mötley Crüe...)

Guitar 1
e|--------------------|
B|--------------------|
G|-7--9/11/9----------|
D|-7--9/11/9--9-9-7---|
A|-5--7/9-/7--9-9-7---|  4x
E|------------7-7-5---|

Guitar 2
e|-------------------------|
B|-------------------------|
G|-7777--9999--------------|
D|-7777--9999--9999-7777---|
A|-5555--7777--9999-7777---|  4x
E|-------------7777-5555---|
  xxxxx  xxxx  xxxx xxxx   > Palm Muted

(You're not Scarlett Johansson, But you're good at romancing...)
e|--------------------|
B|--------------------|
G|-7--9/11/9----------|
D|-7--9/11/9--9-9-7---|
A|-5--7/9-/7--9-9-7---|  4x
E|------------7-7-5---|

 - Pre Chorus : 
(And it's okay if you eat a whole pizza)

e|-------|
B|-------|
G|-------|
D|-5~--5-|
A|-5~--5-| 
E|-3~--3-|

 - Chorus :
(I like you in sweatpants, no makeup...)

Guitar 1
e|---------------------------------------------|
B|---------------------------------------------|
G|-----------------4444------------------------|
D|--5555-4444-7777-4444----5555-4444-77777777--|
A|--5555-5555-7777-2222----5555-5555-77777777--|
E|--3333-2222-5555---------3333-2222-55555555--|

Guitar 2
      ^    ^    ^            ^    ^     ^  > Play exactly at the marked parts
e|----3----2----0------------3----2-----0---|
B|-----3----3----2------------3----3-----2--|
G|------------------------------------------|
D|------------------------------------------|
A|------------------------------------------| 
E|------------------------------------------|  


(There's just gotta be a heaven above...)

e|-----------------------------------|
B|-----------------------------------|
G|-4444-6666-7777--------------------|
D|-4444-6666-7777-5555-4444-2222-7---|
A|-2222-4444-5555-5555-5555-2222-7---|
E|----------------3333-2222-0000-5---|

- Bridge : 
(No Botox, no tanning beds...)

e|-----------------------|     e|---------------|
B|-----------------------|     B|---------------|
G|-----------------------|     G|-5555----------|
D|-----------------------|     D|-5555-5555-----|
A|-5555-5555-7777-9999---| 3x  A|-3333-5555-----| 1x
E|-2222-3333-5555-7777---|     E|------3333-----|

(I like you in ripped jeans, a Frank Turner T-shirt...)

Guitar 1 [Part 1]
e|---3-----2--------------------|
B|----3-----3-----2-----3p2-----|
G|---------------2-2---4--------|
D|--------0-----2-----4---------|
A|-------------0-----2----------| 
E|-------2----------------------| 

Guitar 1 [Part 2]
e|---3-----2---------------|
B|----3-----3-----2--------|
G|---------------2-2-------|
D|--------0-----2----------|
A|-------------0-----------| 
E|-------2-----------------| 

Guitar 2 [Part 2]
e|----------------------|
B|----------------------|
G|----------------------|
D|--5---44---777777-----|
A|--5---55---777777-----|
E|--3---22---555555-----|

 - Chorus :
(I like you in sweatpants, no makeup...)

Guitar 1
e|---------------------------------------------|
B|---------------------------------------------|
G|-----------------4444------------------------|
D|--5555-4444-7777-4444----5555-4444-77777777--|
A|--5555-5555-7777-2222----5555-5555-77777777--|
E|--3333-2222-5555---------3333-2222-55555555--|

Guitar 2
      ^    ^    ^            ^    ^     ^  > Play exactly at the marked parts
e|----3----2----0------------3----2-----0---|
B|-----3----3----2------------3----3-----2--|
G|------------------------------------------|
D|------------------------------------------|
A|------------------------------------------| 
E|------------------------------------------|  


(There's just gotta be a heaven above...)

e|------------------------------------------------------------------|
B|------------------------------------------------------------------|
G|-4444-6666-7777-----------------------16161616-15-14-13-----------|
D|-4444-6666-7777-5555-4444-2222-7777---xxxxxxxx-x--x--x---5555-7---|
A|-2222-4444-5555-5555-5555-2222-7777---14141414-13-12-11--5555-7---|
E|----------------3333-2222-0000-5555----------------------3333-5---|

e|--------------------|
B|--------------------|
G|-7--9/11/9----------|
D|-7--9/11/9--9-9-7---|
A|-5--7/9-/7--9-9-7---|  4x
E|------------7-7-5---|
 
************************************

| p   pull-off
| x   Mute note

************************************
comments
print report bad tab
I want to post or [tab]
guest
You may want to rate the tab now too:
select rating
Please do not post tabs as comments. Select "correction" instead!