Oops, an error
Loading. Please wait.

Punk Rock 101 Tab

version 3
version 3

Whole song

Interactive

Video

762 views 1 this week
no commentswrite comment
1 2 3 4 5
please rate
add to favorites
launch autoscroll
font size
0
reset
how to read this tab
guitar tuner
Autoscroll
slow
fast
+/-
esc
set tempo
stop
Help us to improve Ultimate-Guitar.com Take our survey!
×
Contributor
Well, just tthought I might say there is like 2 guitars so, bit of bother there... 
Anyways....

Tuning: eBGDAE


Intro a x1
E|------------------|------------------|
B|------------------|------------------|
G|------------------|------------------|
D|------7-7-7-6-6-9-|------7-7-7-6-6-9-|
A|------7-7-7-6-6-9-|------7-7-7-6-6-9-|
E|-15\--5-5-5-4-4-7-|------5-5-5-4-4-7-|

Intro b x1
E|------------------------------------------------------------|
B|------------------------------------------------------------|
G|-13--13-13--13-13-13--9--9-9--9-9-9--14--13--11--14--13--11-|
D|------------------------------------------------------------|
A|-11--11-11--11-11-11--7--7-7--7-7-7--12--11--9---12--11--9--|
E|------------------------------------------------------------|

Intro c x1
E|------------------------------------------------------------------|
B|------------------------------------------------------------------|
G|-13--13-13--13-13-13--14--14-14--14-14-14--18--16--14--18--16--14-|
D|------------------------------------------------------------------|
A|-11--11-11--11-11-11--12--12-12--12-12-12--16--14--12--16--14--12-|
E|------------------------------------------------------------------|

Verse x1 (no guitar to begin, then "same song different chorus")

Gtr1            Gtr2
E|-----|        E|-----|
B|-----|        B|-----|
G|-----|  or    G|--9--|
D|--2--|        D|--9--|
A|--2--|        A|--7--|
E|--0--|        E|-----|

Chorus a x1
E|-----------------------------|------------------------------|
B|-----------------------------|------------------------------|
G|-----------------------------|-2--2-2--2-2-2-2--2-2--2-2-2--|
D|-2--2-2--2-2-2-4--4-4--4-4-4-|-2--2-2--2-2-2-2--2-2--2-2-2--|
A|-2--2-2--2-2-2-4--4-4--4-4-4-|-0--0-0--0-0-0-0--0-0--0-0-0--|
E|-0--0-0--0-0-0-2--2-2--2-2-2-|------------------------------|

Chorus b x1
E|-----------------------------|------------------------------|
B|-----------------------------|------------------------------|
G|-----------------------------|-2--2-2--2-2-2--x-x-2--x-x-2--|
D|-2--2-2--2-2-2-4--4-4--4-4-4-|-2--2-2--2-2-2--x-x-2--x-x-2--|
A|-2--2-2--2-2-2-4--4-4--4-4-4-|-0--0-0--0-0-0--x-x-0--x-x-0--|
E|-0--0-0--0-0-0-2--2-2--2-2-2-|------------------------------|

Chorus a x1
E|-----------------------------|------------------------------|
B|-----------------------------|------------------------------|
G|-----------------------------|-2--2-2--2-2-2-2--2-2--2-2-2--|
D|-2--2-2--2-2-2-4--4-4--4-4-4-|-2--2-2--2-2-2-2--2-2--2-2-2--|
A|-2--2-2--2-2-2-4--4-4--4-4-4-|-0--0-0--0-0-0-0--0-0--0-0-0--|
E|-0--0-0--0-0-0-2--2-2--2-2-2-|------------------------------|

Verse x1 (no guitar to begin, then "same song second chorus")

Gtr1            Gtr2
E|-----|        E|-----|
B|-----|        B|-----|
G|-----|  or    G|--9--|
D|--2--|        D|--9--|
A|--2--|        A|--7--|
E|--0--|        E|-----|

Chorus a x4
E|-----------------------------|------------------------------|
B|-----------------------------|------------------------------|
G|-----------------------------|-2--2-2--2-2-2-2--2-2--2-2-2--|
D|-2--2-2--2-2-2-4--4-4--4-4-4-|-2--2-2--2-2-2-2--2-2--2-2-2--|
A|-2--2-2--2-2-2-4--4-4--4-4-4-|-0--0-0--0-0-0-0--0-0--0-0-0--|
E|-0--0-0--0-0-0-2--2-2--2-2-2-|------------------------------|

Bridge x1 "don't forget the delay, on the very last word"
E|-----------------------------------------------------------------------------|
B|-----------------------------------------------------------------------------|
G|-----------------------------------------------------------------------------|
D|-2--x-2-2-2-x-------2--x-2-2-2-x-------2--x-2-2-2-x-------2-2-x-x-2-2-x-x-2\-|
A|-2--x-2-2-2-x-12\---2--x-2-2-2-x-12\---2--x-2-2-2-x-12\---2-2-x-x-2-2-x-x-2\-|
E|-0--x-0-0-0-x-12\---0--x-0-0-0-x-12\---0--x-0-0-0-x-12\---0-0-x-x-0-0-x-x-0--|

Interlude a x1
E|-0-------------------------12----0-----------------|
B|-0-------------------11h12-------0-----------------|
G|-9----8----6----1----------------9----8----6----1--|
D|-9----9----7----2----------------9----9----7----2--|
A|-7----9----7----2----------------7----9----7----2--|
E|------7----5----0---------------------7----5----0--|

Interlude b x1
E|---------------------------------------------------|
B|---------------------------------------------------|
G|--9-9-----9-9---9\---------------------------------|
D|--9-9-x-x-9-9-x-9\---------------------------------|
A|--7-7-x-x-7-7-x-7\---------------------------------|
E|---------------------------------------------------|

Chorus a x1

Gtr 1
E|-----------------------------|------------------------------|
B|-----------------------------|------------------------------|
G|-----------------------------|-2--2-2--2-2-2-2--2-2--2-2-2--|
D|-2--2-2--2-2-2-4--4-4--4-4-4-|-2--2-2--2-2-2-2--2-2--2-2-2--|
A|-2--2-2--2-2-2-4--4-4--4-4-4-|-0--0-0--0-0-0-0--0-0--0-0-0--|
E|-0--0-0--0-0-0-2--2-2--2-2-2-|------------------------------|

Gtr 2
E|-----------------------------------|-----------------------------------------|
B|-----------------------------------|-----------------------------------------|
G|-9--9-9--9-9-9-11--11-11--11-11-11-|-14--14-14--14-14-14-14--14-14--14-14-14-|
D|-9--9-9--9-9-9-11--11-11--11-11-11-|-14--14-14--14-14-14-14--14-14--14-14-14-|
A|-7--7-7--7-7-7-9---9--9---9--9--9--|-12--12-12--12-12-12-12--12-12--12-12-12-|
E|-----------------------------------|-----------------------------------------|

Ending (intro a x1)
E|------------------|------------------|
B|------------------|------------------|
G|------------------|------------------|
D|------7-7-7-6-6-9-|------7-7-7-6-6-9-|
A|------7-7-7-6-6-9-|------7-7-7-6-6-9-|
E|------5-5-5-4-4-7-|------5-5-5-4-4-7-|


(Dunno, if it's been done yet...)

http://www.fastfingerfreddy.com
comments
We did not receive enough feedback on this tab! Please rate:
print report bad tab
1 2 3 4 5
I want to post or [tab]
guest
You may want to rate the tab now too:
select rating
Please do not post tabs as comments. Select "correction" instead!