Oops, an error
Loading. Please wait.

She Doesnt Think That Its Ever Gonna Work Out Tab

22 views 1 this week
no commentswrite comment
1 2 3 4 5
1 last vote to show rating
add to favorites
launch autoscroll
font size
0
reset
how to read this tab
guitar tuner
Autoscroll
slow
fast
+/-
esc
set tempo
stop
Help us to improve Ultimate-Guitar.com Take our survey!
×
Author
Difficulty
intermediate
Bowling For Soup - She Doesn't Think That It's Ever Gonna Work Out
From their 2016 album, "Drunk Dynasty".



[Intro]
  I've got a thing for a girl with a last name...
e|------------------------------------------------------------------------------------------------|
B|------------------------------------------------------------------------------------------------|
G|-7--7--7--7--7--7--7--7--4--4--4--4--4--4--4--4-------------------------------------------------|
D|-7--7--7--7--7--7--7--7--4--4--4--4--4--4--4--4--5--5--5--5--5--5--5--5--7--7--7--7--7--7--7--7-|
A|-5--5--5--5--5--5--5--5--2--2--2--2--2--2--2--2--5--5--5--5--5--5--5--5--7--7--7--7--7--7--7--7-|
E|-------------------------------------------------3--3--3--3--3--3--3--3--5--5--5--5--5--5--5--5-|
   .  .  .  .  .  .  .  .  .  .  .  .  .  .  .  .  .  .  .  .  .  .  .  .  .  .  .  .  .  .  .  .

  I like to that that maybe sooner or later...
e|------------------------------------------------------------------------------------------------|
B|------------------------------------------------------------------------------------------------|
G|-7--7--7--7--7--7--7--7--4--4--4--4--4--4--4--4-------------------------------------------------|
D|-7--7--7--7--7--7--7--7--4--4--4--4--4--4--4--4--5--5--5--5--5--5--5--5--7--7--7--7--7--7--7--7-|
A|-5--5--5--5--5--5--5--5--2--2--2--2--2--2--2--2--5--5--5--5--5--5--5--5--7--7--7--7--7--7--7--7-|
E|-------------------------------------------------3--3--3--3--3--3--3--3--5--5--5--5--5--5--5--5-|
   .  .  .  .  .  .  .  .  .  .  .  .  .  .  .  .  .  .  .  .  .  .  .  .  .  .  .  .  .  .  .  



[Verse 1]
  She said before that she don't like me this way...
e|------------------------------------------------------------------------------------------------|
B|------------------------------------------------------------------------------------------------|
G|-7--7--7--7--7--7--7--7--4--4--4--4--4--4--4--4-------------------------------------------------|
D|-7--7--7--7--7--7--7--7--4--4--4--4--4--4--4--4--5--5--5--5--5--5--5--5--7--7--7--7--7--7--7--7-|
A|-5--5--5--5--5--5--5--5--2--2--2--2--2--2--2--2--5--5--5--5--5--5--5--5--7--7--7--7--7--7--7--7-|
E|-------------------------------------------------3--3--3--3--3--3--3--3--5--5--5--5--5--5--5--5-|

  We shared a cab so we would not have to drive...
e|------------------------------------------------------------------------------------------------|
B|------------------------------------------------------------------------------------------------|
G|-7--7--7--7--7--7--7--7--4--4--4--4--4--4--4--4-------------------------------------------------|
D|-7--7--7--7--7--7--7--7--4--4--4--4--4--4--4--4--5--5--5--5--5--5--5--5--7--7--7--7--7--7--7--7-|
A|-5--5--5--5--5--5--5--5--2--2--2--2--2--2--2--2--5--5--5--5--5--5--5--5--7--7--7--7--7--7--7--7-|
E|-------------------------------------------------3--3--3--3--3--3--3--3--5--5--5--5--5--5--5--5-|



[Hook]
  I try to hold her hand...
e|------------------------------------------------------------------------------------------------|
B|------------------------------------------------------------------------------------------------|
G|-------------------------------------------------7--7--7--7--7--7--7--7--4--4--4--4--4--4--4--4-|
D|-5--5--5--5--5--5--5--5--7--7--7--7--7--7--7--7--7--7--7--7--7--7--7--7--4--4--4--4--4--4--4--4-|
A|-5--5--5--5--5--5--5--5--7--7--7--7--7--7--7--7--5--5--5--5--5--5--5--5--2--2--2--2--2--2--2--2-|
E|-3--3--3--3--3--3--3--3--5--5--5--5--5--5--5--5-------------------------------------------------|

  She tells me we're just friends...
e|------------------------------------------------------------------------------------------------|
B|------------------------------------------------------------------------------------------------|
G|-------------------------------------------------7--7--7--7--7--7--7--7--4--4--4--4--4--4--4--4-|
D|-5--5--5--5--5--5--5--5--7--7--7--7--7--7--7--7--7--7--7--7--7--7--7--7--4--4--4--4--4--4--4--4-|
A|-5--5--5--5--5--5--5--5--7--7--7--7--7--7--7--7--5--5--5--5--5--5--5--5--2--2--2--2--2--2--2--2-|
E|-3--3--3--3--3--3--3--3--5--5--5--5--5--5--5--5-------------------------------------------------|

  She doesn't think that it's ever gonna work out...
e|------------------------------------------------------------------------------------------------|
B|------------------------------------------------------------------------------------------------|
G|-------------------------------------------------7\---------------------------------------------|
D|-5--5--5--5--5--5--5--5--7--7--7--7--7--7--7--7--7\---------------------------------------------|
A|-5--5--5--5--5--5--5--5--7--7--7--7--7--7--7--7--5\---------------------------------------------|
E|-3--3--3--3--3--3--3--3--5--5--5--5--5--5--5--5-------------------------------------------------|



[Verse 2]
  I lost my job because I've got a smart mouth...
e|------------------------------------------------------------------------------------------------|
B|------------------------------------------------------------------------------------------------|
G|-7--7--7--7--7--7--7--7--4--4--4--4--4--4--4--4-------------------------------------------------|
D|-7--7--7--7--7--7--7--7--4--4--4--4--4--4--4--4--5--5--5--5--5--5--5--5--7--7--7--7--7--7--7--7-|
A|-5--5--5--5--5--5--5--5--2--2--2--2--2--2--2--2--5--5--5--5--5--5--5--5--7--7--7--7--7--7--7--7-|
E|-------------------------------------------------3--3--3--3--3--3--3--3--5--5--5--5--5--5--5--5-|
   .  .  .  .  .  .  .  .  .  .  .  .  .  .  .  .  .  .  .  .  .  .  .  .  .  .  .  .  .     .   

  I bought her flowers and the note said "Just Cuz"...
e|------------------------------------------------------------------------------------------------|
B|------------------------------------------------------------------------------------------------|
G|-7--7--7--7--7--7--7--7--4--4--4--4--4--4--4--4-------------------------------------------------|
D|-7--7--7--7--7--7--7--7--4--4--4--4--4--4--4--4--5--5--5--5--5--5--5--5--7--7--7--7--7--7--7--7-|
A|-5--5--5--5--5--5--5--5--2--2--2--2--2--2--2--2--5--5--5--5--5--5--5--5--7--7--7--7--7--7--7--7-|
E|-------------------------------------------------3--3--3--3--3--3--3--3--5--5--5--5--5--5--5--5-|
   .  .  .  .  .  .  .  .  .  .  .  .  .  .  .  .  .  .  .  .  .  .  .  .  .  .  .  .  .  .  .  .



[Hook]
  I hope she'll come around...
e|------------------------------------------------------------------------------------------------|
B|------------------------------------------------------------------------------------------------|
G|-------------------------------------------------7--7--7--7--7--7--7--7--4--4--4--4--4--4--4--4-|
D|-5--5--5--5--5--5--5--5--7--7--7--7--7--7--7--7--7--7--7--7--7--7--7--7--4--4--4--4--4--4--4--4-|
A|-5--5--5--5--5--5--5--5--7--7--7--7--7--7--7--7--5--5--5--5--5--5--5--5--2--2--2--2--2--2--2--2-|
E|-3--3--3--3--3--3--3--3--5--5--5--5--5--5--5--5-------------------------------------------------|

  Maybe I text too much...
e|------------------------------------------------------------------------------------------------|
B|------------------------------------------------------------------------------------------------|
G|-------------------------------------------------7--7--7--7--7--7--7--7--4--4--4--4--4--4--4--4-|
D|-5--5--5--5--5--5--5--5--7--7--7--7--7--7--7--7--7--7--7--7--7--7--7--7--4--4--4--4--4--4--4--4-|
A|-5--5--5--5--5--5--5--5--7--7--7--7--7--7--7--7--5--5--5--5--5--5--5--5--2--2--2--2--2--2--2--2-|
E|-3--3--3--3--3--3--3--3--5--5--5--5--5--5--5--5-------------------------------------------------|

  She doesn't think that it's ever gonna work out...
e|------------------------------------------------------------------------------------------------|
B|------------------------------------------------------------------------------------------------|
G|-------------------------------------------------7--7--7--7--7--7--7--7--7--7--7--7--7--7--7--7-|
D|-5--5--5--5--5--5--5--5--7--7--7--7--7--7--7--7--7--7--7--7--7--7--7--7--7--7--7--7--7--7--7--7-|
A|-5--5--5--5--5--5--5--5--7--7--7--7--7--7--7--7--5--5--5--5--5--5--5--5--5--5--5--5--5--5--5--5-|
E|-3--3--3--3--3--3--3--3--5--5--5--5--5--5--5--5-------------------------------------------------|



[Bridge]
e|------------------------------------------------------------------------------------------------|
B|------------------------------------------------------------------------------------------------|
G|-4----4-/-9-\-4----4-/-9-\-4----4-/-9-\-4--6--7--7--7--7--7--7--7--7--7--7--7--7--7--7--7--7--7-|
D|-4----4-/-9-\-4----4-/-9-\-4----4-/-9-\-4--6--7--7--7--7--7--7--7--7--7--7--7--7--7--7--7--7--7-|
A|-2----2-/-7-\-2----2-/-7-\-2----2-/-7-\-2--4--5--5--5--5--5--5--5--5--5--5--5--5--5--5--5--5--5-|
E|------------------------------------------------------------------------------------------------|

e|------------------------------------------------------------------------------------------------|
B|------------------------------------------------------------------------------------------------|
G|-7--7--7--7--7--7--7----------------------------------------------------------------------------|
D|-7--7--7--7--7--7--7----------------------------------------------------------------------------|
A|-5--5--5--5--5--5--5----------------------------------------------------------------------------|
E|------------------------------------------------------------------------------------------------|



   I try, so hard, to act like it's just fine...
e|------------------------------------------------------------------------------------------------|
B|------------------------------------------------------------------------------------------------|
G|-4----4-/-9-\-4----4-/-9-\-4----4-/-9-\-4--6--7--7--7--7--7--7--7--7--7--7--7--7--7--7--7--7--7-|
D|-4----4-/-9-\-4----4-/-9-\-4----4-/-9-\-4--6--7--7--7--7--7--7--7--7--7--7--7--7--7--7--7--7--7-|
A|-2----2-/-7-\-2----2-/-7-\-2----2-/-7-\-2--4--5--5--5--5--5--5--5--5--5--5--5--5--5--5--5--5--5-|
E|------------------------------------------------------------------------------------------------|

e|------------------------------------------------------------------------------------------------|
B|------------------------------------------------------------------------------------------------|
G|-7--7--7--7--7--7--7----------------------------------------------------------------------------|
D|-7--7--7--7--7--7--7----------------------------------------------------------------------------|
A|-5--5--5--5--5--5--5----------------------------------------------------------------------------|
E|------------------------------------------------------------------------------------------------|



   But for real, I wish, that she would quit making me feel...
e|------------------------------------------------------------------------------------------------|
B|------------------------------------------------------------------------------------------------|
G|-4----4-/-9-\-4----4-/-9-\-4----4-/-9-\-4--6--7--7--7--7--7--7--7--7--7--7--7--7--7--7--7--7--7-|
D|-4----4-/-9-\-4----4-/-9-\-4----4-/-9-\-4--6--7--7--7--7--7--7--7--7--7--7--7--7--7--7--7--7--7-|
A|-2----2-/-7-\-2----2-/-7-\-2----2-/-7-\-2--4--5--5--5--5--5--5--5--5--5--5--5--5--5--5--5--5--5-|
E|------------------------------------------------------------------------------------------------|

e|------------------------------------------------------------------------------------------------|
B|------------------------------------------------------------------------------------------------|
G|-7--7--7--7--7--7--7----------------------------------------------------------------------------|
D|-7--7--7--7--7--7--7----------------------------------------------------------------------------|
A|-5--5--5--5--5--5--5----------------------------------------------------------------------------|
E|------------------------------------------------------------------------------------------------|

   I love you can't you see...
e|------------------------------------------------------------------------------------------------|
B|------------------------------------------------------------------------------------------------|
G|-9--9--9--9-\-7--7--7--7-\-4--4--4--4--4--4--4--4-----------------------------------------------|
D|-9--9--9--9-\-7--7--7--7-\-4--4--4--4--4--4--4--4-----------------------------------------------|
A|-7--7--7--7-\-5--5--5--5-\-2--2--2--2--2--2--2--2-----------------------------------------------|
E|------------------------------------------------------------------------------------------------|


   I know you're the one for me...
e|------------------------------------------------------------------------------------------------|
B|------------------------------------------------------------------------------------------------|
G|-9--9--9--9-\-7--7--7--7-\-4--4--4--4-/-7--7--7--7----------------------------------------------|
D|-9--9--9--9-\-7--7--7--7-\-4--4--4--4-/-7--7--7--7--7-------------------------------------------|
A|-7--7--7--7-\-5--5--5--5-\-2--2--2--2-/-5--5--5--5--7-------------------------------------------|
E|----------------------------------------------------5-------------------------------------------|



[Pre-Chorus]
  I've got a thing for a girl with a last name...
e|------------------------------------------------------------------------------------------------|
B|------------------------------------------------------------------------------------------------|
G|-7--7--7--7--7--7--7--7--4--4--4--4--4--4--4--4-------------------------------------------------|
D|-7--7--7--7--7--7--7--7--4--4--4--4--4--4--4--4--5--5--5--5--5--5--5--5--7--7--7--7--7--7--7--7-|
A|-5--5--5--5--5--5--5--5--2--2--2--2--2--2--2--2--5--5--5--5--5--5--5--5--7--7--7--7--7--7--7--7-|
E|-------------------------------------------------3--3--3--3--3--3--3--3--5--5--5--5--5--5--5--5-|
   .  .  .  .  .  .  .  .  .  .  .  .  .  .  .  .  .  .  .  .  .  .  .  .  .  .  .  .  .  .  .  



[Hook]
  I try to hold her hand...
e|------------------------------------------------------------------------------------------------|
B|------------------------------------------------------------------------------------------------|
G|-------------------------------------------------7--7--7--7--7--7--7--7--4--4--4--4--4--4--4--4-|
D|-5--5--5--5--5--5--5--5--7--7--7--7--7--7--7--7--7--7--7--7--7--7--7--7--4--4--4--4--4--4--4--4-|
A|-5--5--5--5--5--5--5--5--7--7--7--7--7--7--7--7--5--5--5--5--5--5--5--5--2--2--2--2--2--2--2--2-|
E|-3--3--3--3--3--3--3--3--5--5--5--5--5--5--5--5-------------------------------------------------|

  She tells me we're just friends...
e|------------------------------------------------------------------------------------------------|
B|------------------------------------------------------------------------------------------------|
G|-------------------------------------------------7--7--7--7--7--7--7--7--4--4--4--4--4--4--4--4-|
D|-5--5--5--5--5--5--5--5--7--7--7--7--7--7--7--7--7--7--7--7--7--7--7--7--4--4--4--4--4--4--4--4-|
A|-5--5--5--5--5--5--5--5--7--7--7--7--7--7--7--7--5--5--5--5--5--5--5--5--2--2--2--2--2--2--2--2-|
E|-3--3--3--3--3--3--3--3--5--5--5--5--5--5--5--5-------------------------------------------------|

  She doesn't think that it's ever gonna work out...
e|------------------------------------------------------------------------------------------------|
B|------------------------------------------------------------------------------------------------|
G|-------------------------------------------------7--7--7--7--7--7--7--7--7--7--7--7--7--7--7--7-|
D|-5--5--5--5--5--5--5--5--7--7--7--7--7--7--7--7--7--7--7--7--7--7--7--7--7--7--7--7--7--7--7--7-|
A|-5--5--5--5--5--5--5--5--7--7--7--7--7--7--7--7--5--5--5--5--5--5--5--5--5--5--5--5--5--5--5--5-|
E|-3--3--3--3--3--3--3--3--5--5--5--5--5--5--5--5-------------------------------------------------|



[Outro]
  She doesn't think that it's ever gonna work out...
e|------------------------------------------------------------------------------------------------|
B|------------------------------------------------------------------------------------------------|
G|-------------------------------------------------7--7--7--7--7--7--7--7--4--4--4--4--4--4--4--4-|
D|-5--5--5--5--5--5--5--5--7--7--7--7--7--7--7--7--7--7--7--7--7--7--7--7--4--4--4--4--4--4--4--4-|
A|-5--5--5--5--5--5--5--5--7--7--7--7--7--7--7--7--5--5--5--5--5--5--5--5--2--2--2--2--2--2--2--2-|
E|-3--3--3--3--3--3--3--3--5--5--5--5--5--5--5--5-------------------------------------------------|

  She doesn't think that it's ever gonna work out
e|------------------------------------------------------------------------------------------------|
B|------------------------------------------------------------------------------------------------|
G|------------------------------------------------------------------------------------------------|
D|-5--5--5--5--5--5--5--5--7--7--7--7--7--7--7--7-------------------------------------------------|
A|-5--5--5--5--5--5--5--5--7--7--7--7--7--7--7--7-------------------------------------------------|
E|-3--3--3--3--3--3--3--3--5--5--5--5--5--5--5--5-------------------------------------------------|



************************************
Key:

| /   Slide up
| \   Slide down
| .   Palm Mute

************************************



Have fun playing! Improvements and feedback welcome :)
Suggest correction
Give kudos to tab author, rate the tab!
1 2 3 4 5
comments
print report bad tab
guest
You may want to rate the tab now too:
select rating
Wanna post a correction for this tab? Suggest correction