Oops, an error
Loading. Please wait.

Stop Doing That Tab

94 views 3 this week
no commentswrite comment
1 2 3 4 5
3 more votes to show rating
add to favorites
launch autoscroll
font size
0
reset
how to read this tab
guitar tuner
Autoscroll
slow
fast
+/-
esc
set tempo
stop
Help us to improve Ultimate-Guitar.com Take our survey!
×
Author
Difficulty
intermediate
[Intro]
(Guitar 1)
e|----------------------------------------------------------------------------------------------|
B|----------------------------------------------------------------------------------------------|
G|----------------------------------------------------------------------------------------------|
D|-/-5--3-2--0-0--0-2--3----/-5--3-2--0-0--0-2-2-\-3----/-5--3-2--0-0--0-2--3--/-5----3----2----|
A|---------------------------------------------------3---------------------------------------3~-|
E|----------------------------------------------------------------------------------------------|

[Guitar 2]
e|----------------------------------------------------------------------------------------------|
B|----------------------------------------------------------------------------------------------|
G|-5-5-5-5-5-5-5-5------------------------------------------------------------------------------|
D|-5-5-5-5-5-5-5-5-5-5-5-5-5-5-5-5-7-7-7-7-7-7-7-7-3-3-3-3-3-3-3-3------------------------------| x2
A|-3-3-3-3-3-3-3-3-5-5-5-5-5-5-5-5-7-7-7-7-7-7-7-7-3-3-3-3-3-3-3-3------------------------------|
E|-----------------3-3-3-3-3-3-3-3-5-5-5-5-5-5-5-5-1-1-1-1-1-1-1-1------------------------------|

[Verse 1]
  You tell me that you don't like the way I do it so you do it yourself
e|----------------------------------------------------------------------------------------------|
B|----------------------------------------------------------------------------------------------|
G|-5-X-5-X-5-X-X-X-X-5--5-\-4----5-X-5-X-5-X-X-X-X-5--4-\-5-------------------------------------|
D|-5-X-5-X-5-X-X-X-X-5--5-\-4----5-X-5-X-5-X-X-X-X-5--4-\-5-------------------------------------| x2
A|-3-X-3-X-3-X-X-X-X-5--5-\-2----3-X-3-X-3-X-X-X-X-5--2-\-3-------------------------------------|
E|----------------------------------------------------------------------------------------------|

[Pre-Chorus]
  And you change your mind more than I change underwear
e|----------------------------------------------------------------------------------------------|
B|----------------------------------------------------------------------------------------------|
G|----------------------------------------------------------------------------------------------|
D|-5--------3-----------------------------------------------------------------------------------|
A|-5--------3-----------------------------------------------------------------------------------|
E|-3--------1-----------------------------------------------------------------------------------|

[Chorus]
  Stop doing that
e|----------------------------------------------------------------------------------------------|
B|----------------------------------------------------------------------------------------------|
G|-5-5-5-5-5-5-5-5------------------------------------------------------------------------------|
D|-5-5-5-5-5-5-5-5-5-5-5-5-5-5-5-5-7-7-7-7-7-7-7-7-3-3-3-3-3-3-3-3------------------------------| x2
A|-3-3-3-3-3-3-3-3-5-5-5-5-5-5-5-5-7-7-7-7-7-7-7-7-3-3-3-3-3-3-3-3------------------------------|
E|-----------------3-3-3-3-3-3-3-3-5-5-5-5-5-5-5-5-1-1-1-1-1-1-1-1------------------------------|

[Fill]
(Guitar 1)
e|----------------------------------------------------------------------------------------------|
B|----------------------------------------------------------------------------------------------|
G|----------------------------------------------------------------------------------------------|
D|-/-5--3-2--0-0--0-2--3--/-5----3----2---------------------------------------------------------|
A|--------------------------------------3~------------------------------------------------------|
E|----------------------------------------------------------------------------------------------|

[Guitar 2]
e|----------------------------------------------------------------------------------------------|
B|----------------------------------------------------------------------------------------------|
G|-5-5-5-5-5-5-5-5------------------------------------------------------------------------------|
D|-5-5-5-5-5-5-5-5-5-5-5-5-5-5-5-5-7-7-7-7-7-7-7-7-3-3-3-3-3-3-3-3------------------------------|
A|-3-3-3-3-3-3-3-3-5-5-5-5-5-5-5-5-7-7-7-7-7-7-7-7-3-3-3-3-3-3-3-3------------------------------|
E|-----------------3-3-3-3-3-3-3-3-5-5-5-5-5-5-5-5-1-1-1-1-1-1-1-1------------------------------|

[Verse 2]
  You like to burp out loud in public and punch me in the head
e|----------------------------------------------------------------------------------------------|
B|----------------------------------------------------------------------------------------------|
G|-5-X-5-X-5-X-X-X-X-5--5-\-4----5-X-5-X-5-X-X-X-X-5--4-\-5-------------------------------------|
D|-5-X-5-X-5-X-X-X-X-5--5-\-4----5-X-5-X-5-X-X-X-X-5--4-\-5-------------------------------------| x2
A|-3-X-3-X-3-X-X-X-X-5--5-\-2----3-X-3-X-3-X-X-X-X-5--2-\-3-------------------------------------|
E|----------------------------------------------------------------------------------------------|

[Pre-Chorus]
  And I wish we'd never broken that barrier
e|----------------------------------------------------------------------------------------------|
B|----------------------------------------------------------------------------------------------|
G|----------------------------------------------------------------------------------------------|
D|-5--------3--------5--------3----2------------------------------------------------------------|
A|-5--------3--------5--------3----2------------------------------------------------------------|
E|-3--------1--------3--------1----0------------------------------------------------------------|

[Chorus]
  Stop doing that
e|----------------------------------------------------------------------------------------------|
B|----------------------------------------------------------------------------------------------|
G|-5-5-5-5-5-5-5-5------------------------------------------------------------------------------|
D|-5-5-5-5-5-5-5-5-5-5-5-5-5-5-5-5-7-7-7-7-7-7-7-7-3-3-3-3-3-3-3-3------------------------------| x2
A|-3-3-3-3-3-3-3-3-5-5-5-5-5-5-5-5-7-7-7-7-7-7-7-7-3-3-3-3-3-3-3-3------------------------------|
E|-----------------3-3-3-3-3-3-3-3-5-5-5-5-5-5-5-5-1-1-1-1-1-1-1-1------------------------------|

[Fill]
(Guitar 1)
e|----------------------------------------------------------------------------------------------|
B|----------------------------------------------------------------------------------------------|
G|-5-X-5-X-5-X-X-X-X-5--5-\-4----5-X-5-X-5-X-X-X-X-5--4-\-5-------------------------------------|
D|-5-X-5-X-5-X-X-X-X-5--5-\-4----5-X-5-X-5-X-X-X-X-5--4-\-5-------------------------------------|
A|-3-X-3-X-3-X-X-X-X-5--5-\-2----3-X-3-X-3-X-X-X-X-5--2-\-3-------------------------------------|
E|----------------------------------------------------------------------------------------------|

[Guitar 2]
e|----------------------------------------------------------------------------------------------|
B|----------------------------------------------------------------------------------------------|
G|-5----------------------------5---------------------------------------------------------------|
D|-5----------------------------5---------------------------------------------------------------|
A|-3----------------------------3---------------------------------------------------------------|
E|----------------------------------------------------------------------------------------------|

[Solo]
  You tell everyone that I stink and I'm dumb
e|----------------------------------------------------------------------------------------------|
B|-------------7^----------------7^----------------7^----------------9^----10^------------------|
G|-7^----8^----------7^----8^----------7^----8^----------7^----8^-------------------------------|
D|----------------------------------------------------------------------------------------------|
A|----------------------------------------------------------------------------------------------|
E|----------------------------------------------------------------------------------------------|

[Chorus]
  Stop doing that
e|----------------------------------------------------------------------------------------------|
B|----------------------------------------------------------------------------------------------|
G|-5-5-5-5-5-5-5-5------------------------------------------------------------------------------|
D|-5-5-5-5-5-5-5-5-5-5-5-5-5-5-5-5-7-7-7-7-7-7-7-7-3-3-3-3-3-3-3-3------------------------------| x2
A|-3-3-3-3-3-3-3-3-5-5-5-5-5-5-5-5-7-7-7-7-7-7-7-7-3-3-3-3-3-3-3-3------------------------------|
E|-----------------3-3-3-3-3-3-3-3-5-5-5-5-5-5-5-5-1-1-1-1-1-1-1-1------------------------------|

[Outro]
(Guitar 1)
  Stop doing that
e|----------------------------------------------------------------------------------------------|
B|----------------------------------------------------------------------------------------------|
G|-5-5-5-5-5-5-5-5------------------------------------------------------------------------------|
D|-5-5-5-5-5-5-5-5-5-5-5-5-5-5-5-5-7-7-7-7-7-7-7-7-3-3-3-3-3-3-3-3------------------------------| x2
A|-3-3-3-3-3-3-3-3-5-5-5-5-5-5-5-5-7-7-7-7-7-7-7-7-3-3-3-3-3-3-3-3------------------------------|
E|-----------------3-3-3-3-3-3-3-3-5-5-5-5-5-5-5-5-1-1-1-1-1-1-1-1------------------------------|

[Guitar 2]
e|----------------------------------------------------------------------------------------------|
B|----------------------------------------------------------------------------------------------|
G|----------------------------------------------------------------------------------------------|
D|-/-5--3-2--0-0--0-2--3----/-5--3-2--0-0--0-2-2-\-3----/-5--3-2--0-0--0-2--3-------------------|
A|---------------------------------------------------3------------------------------------------|
E|----------------------------------------------------------------------------------------------|


************************************

| X   Dead note
| ^   Bend
| /   Slide up
| \   Slide down
| ~   Vibrato

************************************
Suggest correction
Give kudos to tab author, rate the tab!
1 2 3 4 5
comments
print report bad tab
guest
You may want to rate the tab now too:
select rating
Wanna post a correction for this tab? Suggest correction