Oops, an error
Loading. Please wait.

Summer Of 69 Bass

version 1
version 1

Whole song

Interactive

7,207 views 9 this week
no commentswrite comment
1 2 3 4 5
x 7
add to favorites
launch autoscroll
font size
0
reset
guitar tuner
×
Best way to learn
"Summer Of 69"
Autoscroll
slow
fast
+/-
esc
set tempo
stop
Artist: Bowling for soup
Song: Summer of '69 bass tab    

Intro
G|--------------------------------------------------|
D|--------------------------------------------------|
A|----5---5----------------------5---5--------------|
E|------------------5---5-----------------------5*--|

Verse
G|---------------------------------------------------------------------|
D|---------------------------------------------------------------------| x2           
A|-5-5-5-5-5-5-5-5-5-5-5-5-5-5-5-7-------------------------------------|
E|-----------------------------------5-5-5-5-5-5-5-5-5-5-5-5-5-5-5-5---|

Pre-Chorus
G|-------------------------------------------------------------------------|
D|-------------------------------------------------------------------------| x2    
A|-------------------------------------5-5-5-5-5-5-5-5---------------------|
E|-7-7-7-7-7-7-7-7---5-5-5-5-5-5-5-5---------------------3-3-3-3-3-3-3-3---|

Chorus
G|---------------------------------|
D|---------------------------------|
A|---------------------------------|
E|-7-7-7-7-7-7-7-7---5*------------|

G|---------------------------------------------------------------------|
D|---------------------------------------------------------------------| x2             
A|-5-5-5-5-5-5-5-5-5-5-5-5-5-5-5-5-------------------------------------|
E|-----------------------------------5-5-5-5-5-5-5-5-5-5-5-5-5-5-5-5---|

Verse
G|---------------------------------------------------------------------|
D|---------------------------------------------------------------------| x2           
A|-5-5-5-5-5-5-5-5-5-5-5-5-5-5-5-7-------------------------------------|
E|-----------------------------------5-5-5-5-5-5-5-5-5-5-5-5-5-5-5-5---|

Pre-Chorus
G|-------------------------------------------------------------------------|
D|-------------------------------------------------------------------------| x2    
A|-------------------------------------5-5-5-5-5-5-5-5---------------------|
E|-7-7-7-7-7-7-7-7---5-5-5-5-5-5-5-5---------------------3-3-3-3-3-3-3-3---|

Chorus
G|---------------------------------|
D|---------------------------------|
A|---------------------------------|
E|-7-7-7-7-7-7-7-7---5*------------|

G|---------------------------------------------------------------------|
D|---------------------------------------------------------------------| x2             
A|-5-5-5-5-5-5-5-5-5-5-5-5-5-5-5-5-------------------------------------|
E|-----------------------------------5-5-5-5-5-5-5-5-5-5-5-5-5-5-5-5---|

Bridge
G|------------------------------------------------------------------------|
D|------------------------------------------------------------------------|
A|------------------1-1-1-1-1-1-1-1---3-3-3-3-3-3-3-3---1-1-1-1-1-1-1-1---|
E|-1-1-1-1-1-1-1-1--------------------------------------------------------|

G|-----------------------------------------------------------------------|
D|-----------------------------------------------------------------------|
A|-------------------1-1-1-1-1-1-1-1---3-3-3-3-3-3-3-3-3-3-3-3-3-3-3-3---|
E|-1-1-1-1-1-1-1-1-------------------------------------------------------|

G|---------------------------------------------------|
D|---------------------------------------------------|
A|-5*--------5*--------------------------------------|
E|------5*--------5-5-5-5-5-5-5-5-5-5-5-5-5-5-5-5----|

Verse
G|---------------------------------------------------------------------|
D|---------------------------------------------------------------------| x2           
A|-5-5-5-5-5-5-5-5-5-5-5-5-5-5-5-7-------------------------------------|
E|-----------------------------------5-5-5-5-5-5-5-5-5-5-5-5-5-5-5-5---|

Pre-Chorus
G|-------------------------------------------------------------------------|
D|-------------------------------------------------------------------------| x2    
A|-------------------------------------5-5-5-5-5-5-5-5---------------------|
E|-7-7-7-7-7-7-7-7---5-5-5-5-5-5-5-5---------------------3-3-3-3-3-3-3-3---|

Chorus
G|---------------------------------|
D|---------------------------------|
A|---------------------------------|
E|-7-7-7-7-7-7-7-7---5*------------|

Outro
G|---------------------------------------------------------------------|
D|---------------------------------------------------------------------| x4           
A|-5-5-5-5-5-5-5-5-5-5-5-5-5-5-5-7-------------------------------------|
E|-----------------------------------5-5-5-5-5-5-5-5-5-5-5-5-5-5-5-5---|

G|---------------------------------------------------------------------|
D|---------------------------------------------------------------------| x2             
A|-5-5-5-5-5-5-5-5-5-5-5-5-5-5-5-5-------------------------------------|
E|-----------------------------------5-5-5-5-5-5-5-5-5-5-5-5-5-5-5-5---|

Finish with A5


Hope this helps:
Wendell t. wolf
Suggest correction
comments
print report bad tab
guest
You may want to rate the tab now too:
select rating
Wanna post a correction for this tab? Suggest correction