Oops, an error
Loading. Please wait.

Summer Of 69 Tab

version 1
version 1

Whole song

Interactive

76,169 views 3 this week
4 commentsread comments
1 2 3 4 5
x 13
add to favorites
launch autoscroll
font size
0
reset
how to read this tab
guitar tuner
Autoscroll
slow
fast
+/-
esc
set tempo
stop
Help us to improve Ultimate-Guitar.com Take our survey!
×
----------------------------------------------------------------------------
                           Summer of 69- Bowling For Soup
----------------------------------------------------------------------------
Tabbed by:Kerri Butcher
Email:Footie4eva@hotmail.com

| /  slide up
| \  slide down
| h  hammer-on
| p  pull-off
| ~  vibrato
| +  harmonic
| x  Mute note
| *  play 8 times
| P.M  palm mute

INTRO

e|------------------------------------------------|
B|------------------------------------------------|
G|-7---7----7-7----------7-7----------------------|
D|-7---7----7-7----7-7---7-7----7-LET RING--------|
A|-5-5-5-5--5-5-5--7-7---5-5-5--7-----------------|
E|-------*------*--5-5-5-----*--5-----------------|
   
VERSE 1         PRE CHORUS           
e|------------------|---------------------------------------------|
B|------------------|---------------------------------------------|
G|-7-7-----7-7------|--4-2-7-----4-2-7------4---------------------|
D|-7-7-7-7-7-7-7-7--|--4-2-7-5---4-2-7-5----4-7-------------------|
A|-5-5-7-7-5-5-7-7--|--2-0-5-5---2-0-5-5----2-7-------------------|
E|-*-*-5-5-*-*-5-5--|--*-*-*-3---*-*-*-3----*-5-------------------|
       * *     * *           *         *      


CHORUS-GUITAR 1

e|-------------------------------------------------------|
B|-------------------------------------------------------|
G|-7--7--2--2-----7--7--2--2-----------------------------|
D|-7--7--2--2-----7--7--2--2-----------------------------|
A|-5--5--0--0-----5--5--0--0-----------------------------|
E|-*--*--*--*-----*--*--*--*-----------------------------|

GUITAR 2-
e|-----------------------------------------------|
B|-----------------------------------------------|
G|-----0-----------------------------------------|
D|-0-2---4--2--4------------0--------------------|  X2
A|--------------------2--4----4--2--4------------|
E|-----------------------------------------------|

VERSE 2
e|------------------------------------------------|
B|------------------------------------------------|
G|--7-7--------7-7--------------------------------|
D|--7-7---7-7--7-7---7-7--------------------------|
A|--5-5---7-7--5-5---7-7--------------------------|
E|--*-*---5-5--*--*--5-5--------------------------|
          * *        * * 

PRE CHORUS
e|------------------------------------------------|
B|------------------------------------------------|
G|-4-2-7------4-2-7-----4-------------------------|
D|-4-2-7-5----4-2-7-5---4-7-----------------------|
A|-2-0-5-5----2-0-5-5---2-7-----------------------|
E|-*-*-*-3----*-*-*-3---*-5-----------------------|
         *          *


CHORUS-GUITAR 1

e|-------------------------------------------------------|
B|-------------------------------------------------------|
G|-7--7--2--2-----7--7--2--2-----------------------------|
D|-7--7--2--2-----7--7--2--2-----------------------------|
A|-5--5--0--0-----5--5--0--0-----------------------------|
E|-*--*--*--*-----*--*--*--*-----------------------------|



GUITAR 2-
e|-----------------------------------------------|
B|-----------------------------------------------|
G|-----0-----------------------------------------|
D|-0-2---4--2--4------------0--------------------|  X2
A|--------------------2--4----4--2--4------------|
E|-----------------------------------------------|


BRIDGE- part 1
yea we were killing time...we were young and restless...

e|-----------------------------------------------------|
B|-----------------------------------------------------|
G|----3--5--3---------3--5--5--------------------------|
D|-3--3--5--3------3--3--5--5--------------------------|
A|-3--1--3--1------3--1--3--3--------------------------|
E|-1--*--*--*------1--*--*--*--------------------------|
   *               *

BRIDGE PART 2-GUITAR 1-
e|-----------------------------------------------------|
B|-----------------------------------------------------|
G|-7-----7---------------------------------------------|
D|-7--7--7--7------------------------------------------|
A|-5--7--5--7------------------------------------------|
E|----5-----5------------------------------------------|

GUITAR 2-
e|-----------------------------------------------|
B|-----------------------------------------------|
G|-----0-----------------------------------------|
D|-0-2---4--2--4------------0--------------------|  X2
A|--------------------2--4----4--2--4------------|
E|-----------------------------------------------|


VERSE 3
e|------------------------------------------------|
B|------------------------------------------------|
G|--7-7--------7-7--------------------------------|
D|--7-7---7-7--7-7---7-7--------------------------|
A|--5-5---7-7--5-5---7-7--------------------------|
E|--*-*---5-5--*--*--5-5--------------------------|
          * *        * * 


PRE CHORUS
e|--------------------------------------------------|
B|--------------------------------------------------|
G|-4-2-7------4-2-7-----4---------------------------|
D|-4-2-7-5----4-2-7-5---4-7-------------------------|
A|-2-0-5-5----2-0-5-5---2-7-------------------------|
E|-*-*-*-3----*-*-*-3---*-5-------------------------|
         *          *

CHORUS-GUITAR 1
                                   THIRD TIME THROUGH
e|-------------------------------|------------------------|
B|-------------------------------|------------------------|
G|-7--7--2--2-----7--7--2--2-----|--7---------------------|
D|-7--7--2--2-----7--7--2--2-----|--7--LET RING-----------| X3
A|-5--5--0--0-----5--5--0--0-----|--5---------------------|
E|-*--*--*--*-----*--*--*--*-----|------------------------|


GUITAR 2-
e|-----------------------------------------------|
B|-----------------------------------------------|
G|-----0-----------------------------------------|
D|-0-2---4--2--4------------0--------------------|  X2
A|--------------------2--4----4--2--4------------|
E|-----------------------------------------------|

ENJOY!

| /  slide up
| \  slide down
| h  hammer-on
| p  pull-off
| ~  vibrato
| +  harmonic
| x  Mute note
Suggest correction
comments
print report bad tab
4 comments total. Showing first comments.
0 reply
pichu559 10 May 01, 2006 10:09 PM

whats the tunning?

0 reply
I-Z 214 Jul 15, 2006 11:26 PM

STANDARD DUH!

0 reply
Liam 1,995 Dec 18, 2006 02:10 PM

not really that good. missed out lots. and you assume that every chord pattern means that you play the chord 8 times? well thats wrong

guest
You may want to rate the tab now too:
select rating
Wanna post a correction for this tab? Suggest correction