Oops, an error
Loading. Please wait.

Summer Of 69 Tab

version 2
version 2

Whole song

Interactive

9,421 views 3 this week
no commentswrite comment
1 2 3 4 5
accurate
x 3
add to favorites
launch autoscroll
font size
0
reset
how to read this tab
guitar tuner
Tab Pro tools
  • play this tab
  • loop segment
  • change instrument
  • show fretboard
  • metronome
×
Best way to learn
"Summer Of 69"
Autoscroll
slow
fast
+/-
esc
set tempo
stop
Difficulty
intermediate
                                 Summer Of 69                                   


                                                             Bowling For Soup
Rhythm


Duration Legend
---------------
W - whole
H - half
Q - quarter
E - 8th
S - 16th
T - 32nd
X - 64th
. - note dotted
|-n-|  - n-tuplets


Tablature Legend
----------------
L - tied note
x - dead note
g - grace note
(n) - ghost note
> - accentuded note
NH - natural harmonic
AH - artificial harmonic
TH - tapped harmonic
SH - semi harmonic
PH - pitch harmonic
h - hammer on
p - pull off
b - bend
br - bendRelease
pb - preBend
pbr - preBendRelease
brb - bendReleaseBend
\n/ - tremolo bar dip
\n - tremolo bar dive
-/n - tremolo bar Release up
/n\ - tremolo bar inverted dip
/n - tremolo bar return
-\n - tremolo bar Release down
S - shift slide
s - legato slide
/ -  slide into from below or out of upwards
\ -  slide into from above or out of downwards
~ - vibrato
W - wide vibrato
tr - trill
TP - tremolo picking
T - tapping
S - slap
P - pop
< - fade in
^ - brush up
v - brush down


        PM PM    PM PM PM PM    PM PM PM PM PM PM PM PM  
     E  E  E  E  E  E  E  E     E  E  E  E  E  E  E  E   
E||--------------------------|--------------------------|
B||--------------------------|--------------------------|
G||--7--------7--------------|--------------------------|
D||--7--7--7--7--7--7--7--7--|--7--7--7--7--7--7--7--7--|
A||--5--5--5--5--5--5--5--5--|--5--5--5--5--5--5--5--5--|
E||--------------------------|--------------------------|


     PM PM    PM PM PM PM    PM PM PM PM PM PM PM PM  
  E  E  E  E  E  E  E  E     E  E  E  E  E  E  E  E   
--------------------------|--------------------------|
--------------------------|--------------------------|
--7--------7--------------|--------------------------|
--7--7--7--7--7--7--7--7--|--7--7--7--7--7--7--7--7--|
--5--5--5--5--5--5--5--5--|--5--5--5--5--5--5--5--5--|
--------------------------|--------------------------|


     PM PM    PM PM PM PM    PM PM PM PM PM PM PM PM  
  E  E  E  E  E  E  E  E     E  E  E  E  E  E  E  E   
--------------------------|--------------------------|
--------------------------|--------------------------|
--------------------------|--------------------------|
--7--------7--------------|--------------------------|
--7--7--7--7--7--7--7--7--|--7--7--7--7--7--7--7--7--|
--5--5--5--5--5--5--5--5--|--5--5--5--5--5--5--5--5--|


     PM PM    PM PM PM PM    PM PM PM PM PM PM PM PM                      
  E  E  E  E  E  E  E  E     E  E  E  E  E  E  E  E     W                 
--------------------------|--------------------------|-------------------|
--------------------------|--------------------------|-------------------|
--7--------7--------------|--------------------------|-------------------|
--7--7--7--7--7--7--7--7--|--7--7--7--7--7--7--7--7--|--7----------------|
--5--5--5--5--5--5--5--5--|--5--5--5--5--5--5--5--5--|--7----------------|
--------------------------|--------------------------|--5----------------|


  W                     E  E  E  E  E  E  E  E     E  E  E  E  E  E  E  E   
-------------------||---------------------------|--------------------------|
-------------------||---------------------------|--------------------------|
-------------------||*--7--7--7--7--7--7--7--7--|--7--7--7--7--7--7--7--7--|
--L----------------||*--7--7--7--7--7--7--7--7--|--7--7--7--7--7--7--7--7--|
--L----------------||---5--5--5--5--5--5--5--5--|--5--5--5--5--5--5--5--5--|
--L----------------||---------------------------|--------------------------|


  E  E  E  E  E  E  E  E     E  E  E  E  E  E  E  E     
--------------------------|---------------------------||
--------------------------|---------------------------||
--------------------------|--------------------------*||
--7--7--7--7--7--7--7--7--|--7--7--7--7--7--7--7--7--*||
--7--7--7--7--7--7--7--7--|--7--7--7--7--7--7--7--7---||
--5--5--5--5--5--5--5--5--|--5--5--5--5--5--5--5--5---||


   E  E  E  E  E  E  E  E     E  E  E  E  E  E  E  E   
---------------------------|--------------------------|
---------------------------|--------------------------|
*--4--4--4--4--4--4--4--4--|--------------------------|
*--4--4--4--4--4--4--4--4--|--7--7--7--7--7--7--7--7--|
---2--2--2--2--2--2--2--2--|--7--7--7--7--7--7--7--7--|
---------------------------|--5--5--5--5--5--5--5--5--|


  E  E  E  E  E  E  E  E     E  E  E  E  E  E  E  E     
--------------------------|---------------------------||
--------------------------|---------------------------||
--7--7--7--7--7--7--7--7--|--------------------------*||
--7--7--7--7--7--7--7--7--|--5--5--5--5--5--5--5--5--*||
--5--5--5--5--5--5--5--5--|--5--5--5--5--5--5--5--5---||
--------------------------|--3--3--3--3--3--3--3--3---||


  E  E  E  E  E  E  E  E     W                     E  E  E  E  E  E  E  E   
--------------------------|-------------------||---------------------------|
--------------------------|-------------------||---------------------------|
--4--4--4--4--4--4--4--4--|-------------------||*--7--7--7--7--7--7--7--7--|
--4--4--4--4--4--4--4--4--|--7----------------||*--7--7--7--7--7--7--7--7--|
--2--2--2--2--2--2--2--2--|--7----------------||---5--5--5--5--5--5--5--5--|
--------------------------|--5----------------||---------------------------|


  E  E  E  E  E  E  E  E     E  E  E  E  E  E  E  E   
--------------------------|--------------------------|
--------------------------|--------------------------|
--7--7--7--7--7--7--7--7--|--------------------------|
--7--7--7--7--7--7--7--7--|--7--7--7--7--7--7--7--7--|
--5--5--5--5--5--5--5--5--|--7--7--7--7--7--7--7--7--|
--------------------------|--5--5--5--5--5--5--5--5--|


  E  E  E  E  E  E  E  E        E  E  E  E  E  E  E  E   
---------------------------||---------------------------|
---------------------------||---------------------------|
--------------------------*||*--7--7--7--7--7--7--7--7--|
--7--7--7--7--7--7--7--7--*||*--7--7--7--7--7--7--7--7--|
--7--7--7--7--7--7--7--7---||---5--5--5--5--5--5--5--5--|
--5--5--5--5--5--5--5--5---||---------------------------|


  E  E  E  E  E  E  E  E     E  E  E  E  E  E  E  E   
--------------------------|--------------------------|
--------------------------|--------------------------|
--7--7--7--7--7--7--7--7--|--------------------------|
--7--7--7--7--7--7--7--7--|--7--7--7--7--7--7--7--7--|
--5--5--5--5--5--5--5--5--|--7--7--7--7--7--7--7--7--|
--------------------------|--5--5--5--5--5--5--5--5--|


  E  E  E  E  E  E  E  E        E  E  E  E  E  E  E  E   
---------------------------||---------------------------|
---------------------------||---------------------------|
--------------------------*||*--4--4--4--4--4--4--4--4--|
--7--7--7--7--7--7--7--7--*||*--4--4--4--4--4--4--4--4--|
--7--7--7--7--7--7--7--7---||---2--2--2--2--2--2--2--2--|
--5--5--5--5--5--5--5--5---||---------------------------|


  E  E  E  E  E  E  E  E     E  E  E  E  E  E  E  E   
--------------------------|--------------------------|
--------------------------|--------------------------|
--------------------------|--7--7--7--7--7--7--7--7--|
--7--7--7--7--7--7--7--7--|--7--7--7--7--7--7--7--7--|
--7--7--7--7--7--7--7--7--|--5--5--5--5--5--5--5--5--|
--5--5--5--5--5--5--5--5--|--------------------------|


  E  E  E  E  E  E  E  E       E  E  E  E  E  E  E  E     W                 
---------------------------||--------------------------|-------------------|
---------------------------||--------------------------|-------------------|
--------------------------*||--4--4--4--4--4--4--4--4--|-------------------|
--5--5--5--5--5--5--5--5--*||--4--4--4--4--4--4--4--4--|--7----------------|
--5--5--5--5--5--5--5--5---||--2--2--2--2--2--2--2--2--|--7----------------|
--3--3--3--3--3--3--3--3---||--------------------------|--5----------------|


    E  E  E  E  E  E  E  E     E  E  E  E  E  E  E  E   
|---------------------------|--------------------------|
|---------------------------|--------------------------|
|*--7--7--7--7--7--7--7--7--|--7--7--7--7--7--7--7--7--|
|*--7--7--7--7--7--7--7--7--|--7--7--7--7--7--7--7--7--|
|---5--5--5--5--5--5--5--5--|--5--5--5--5--5--5--5--5--|
|---------------------------|--------------------------|


  E  E  E  E  E  E  E  E     E  E  E  E  E  E  E  E     
--------------------------|---------------------------||
--------------------------|---------------------------||
--------------------------|--------------------------*||
--7--7--7--7--7--7--7--7--|--7--7--7--7--7--7--7--7--*||
--7--7--7--7--7--7--7--7--|--7--7--7--7--7--7--7--7---||
--5--5--5--5--5--5--5--5--|--5--5--5--5--5--5--5--5---||


   E  E  E  E  E  E  E  E     E  E  E  E  E  E  E  E   
---------------------------|--------------------------|
---------------------------|--------------------------|
*--------------------------|--3--3--3--3--3--3--3--3--|
*--3--3--3--3--3--3--3--3--|--3--3--3--3--3--3--3--3--|
---3--3--3--3--3--3--3--3--|--1--1--1--1--1--1--1--1--|
---1--1--1--1--1--1--1--1--|--------------------------|


  E  E  E  E  E  E  E  E     E  E  E  E  E  E  E  E     
--------------------------|---------------------------||
--------------------------|---------------------------||
--5--5--5--5--5--5--5--5--|--3--3--3--3--3--3--3--3--*||
--5--5--5--5--5--5--5--5--|--3--3--3--3--3--3--3--3--*||
--3--3--3--3--3--3--3--3--|--1--1--1--1--1--1--1--1---||
--------------------------|---------------------------||


  E  E  E  E  E  E  E  E       W                   W                 
--------------------------||--------------------|-------------------|
--------------------------||--------------------|-------------------|
--5--5--5--5--5--5--5--5--||*--7----------------|--L----------------|
--5--5--5--5--5--5--5--5--||*--7----------------|--L----------------|
--3--3--3--3--3--3--3--3--||---5----------------|--L----------------|
--------------------------||--------------------|-------------------|


  W                   W                      E  E  E  E  E  E  E  E   
-------------------|--------------------||---------------------------|
-------------------|--------------------||---------------------------|
-------------------|-------------------*||*--7--7--7--7--7--7--7--7--|
--7----------------|--L----------------*||*--7--7--7--7--7--7--7--7--|
--7----------------|--L-----------------||---5--5--5--5--5--5--5--5--|
--5----------------|--L-----------------||---------------------------|


  E  E  E  E  E  E  E  E     E  E  E  E  E  E  E  E   
--------------------------|--------------------------|
--------------------------|--------------------------|
--7--7--7--7--7--7--7--7--|--------------------------|
--7--7--7--7--7--7--7--7--|--7--7--7--7--7--7--7--7--|
--5--5--5--5--5--5--5--5--|--7--7--7--7--7--7--7--7--|
--------------------------|--5--5--5--5--5--5--5--5--|


  E  E  E  E  E  E  E  E       E  E  E  E  E  E  E  E   
---------------------------||--------------------------|
---------------------------||--------------------------|
--------------------------*||--4--4--4--4--4--4--4--4--|
--7--7--7--7--7--7--7--7--*||--4--4--4--4--4--4--4--4--|
--7--7--7--7--7--7--7--7---||--2--2--2--2--2--2--2--2--|
--5--5--5--5--5--5--5--5---||--------------------------|


  E  E  E  E  E  E  E  E     E  E  E  E  E  E  E  E   
--------------------------|--------------------------|
--------------------------|--------------------------|
--------------------------|--7--7--7--7--7--7--7--7--|
--7--7--7--7--7--7--7--7--|--7--7--7--7--7--7--7--7--|
--7--7--7--7--7--7--7--7--|--5--5--5--5--5--5--5--5--|
--5--5--5--5--5--5--5--5--|--------------------------|


  E  E  E  E  E  E  E  E       E  E  E  E  E  E  E  E   
--------------------------||---------------------------|
--------------------------||---------------------------|
--------------------------||*--7--7--7--7--7--7--7--7--|
--5--5--5--5--5--5--5--5--||*--7--7--7--7--7--7--7--7--|
--5--5--5--5--5--5--5--5--||---5--5--5--5--5--5--5--5--|
--3--3--3--3--3--3--3--3--||---------------------------|


  E  E  E  E  E  E  E  E     E  E  E  E  E  E  E  E   
--------------------------|--------------------------|
--------------------------|--------------------------|
--7--7--7--7--7--7--7--7--|--------------------------|
--7--7--7--7--7--7--7--7--|--7--7--7--7--7--7--7--7--|
--5--5--5--5--5--5--5--5--|--7--7--7--7--7--7--7--7--|
--------------------------|--5--5--5--5--5--5--5--5--|


  E  E  E  E  E  E  E  E   4x   E  E  E  E  E  E  E  E   
---------------------------||---------------------------|
---------------------------||---------------------------|
--------------------------*||*--7--7--7--7--7--7--7--7--|
--7--7--7--7--7--7--7--7--*||*--7--7--7--7--7--7--7--7--|
--7--7--7--7--7--7--7--7---||---5--5--5--5--5--5--5--5--|
--5--5--5--5--5--5--5--5---||---------------------------|


  E  E  E  E  E  E  E  E     E  E  E  E  E  E  E  E   
--------------------------|--------------------------|
--------------------------|--------------------------|
--7--7--7--7--7--7--7--7--|--------------------------|
--7--7--7--7--7--7--7--7--|--7--7--7--7--7--7--7--7--|
--5--5--5--5--5--5--5--5--|--7--7--7--7--7--7--7--7--|
--------------------------|--5--5--5--5--5--5--5--5--|


  E  E  E  E  E  E  E  E       W                   W                  
---------------------------||-------------------|-------------------||
---------------------------||-------------------|-------------------||
--------------------------*||--7----------------|--L----------------||
--7--7--7--7--7--7--7--7--*||--7----------------|--L----------------||
--7--7--7--7--7--7--7--7---||--5----------------|--L----------------||
--5--5--5--5--5--5--5--5---||-------------------|-------------------||



comments
We did not receive enough feedback on this tab! Please rate:
print report bad tab
1 2 3 4 5
I want to post or [tab]
guest
You may want to rate the tab now too:
select rating
Please do not post tabs as comments. Select "correction" instead!