Oops, an error
Loading. Please wait.

The Bitch Song bass

version 1
version 1

Whole song

Interactive

2,756 views 6 this week
4 commentsread comments
1 2 3 4 5
x 4
add to favorites
×
Save as Personal and add changes to this tab that will be seen only by you. Learn more ›
×
You can save this tab as Personal to edit and correct it or add notes. All changes will be seen only by you. Learn more »
launch autoscroll
font size
0
reset
guitar tuner
edit
Autoscroll
slow
fast
+/-
esc
set tempo
stop
Intro:
G|---------------------|
D|---------------------|
A|------5-5------------|
E|-3-3-------8-8-------|

Chorus:
G|----------------------------------------------|
D|----------------------------------------------|
A|------------5-5-5-5-5-------------------------|
E|--3-3-3-3-3------------8-8-8-8-8-8-8-8-8-8----|


Verse:
G|--------------------------------------------------------------------------------|
D|--------------------------------------------------------------------------------|
A|---------------------------------------------------------5-5--5555555555555555--|
E|--3--5--8------(TO MAKE YOU LOOK UP...3-3--333333333333----------------------8--|

Chorus:
G|-----------------------------------------------------|
D|-----------------------------------------------------|
A|-------------5-5-5-5-5-------------------------------|
E|--3-3-3-3-3-------------8-8-8-8-8-8-8-8-8-8-8-8-8----|


Verse 2:
G|--------------------------------------------------|
D|--------------------------------------------------|
A|---------------555555555555-----------------------|
E|--333333333333---------------888888888888888888---|

CHORUS AGAIN


BRIDGE

G|----------------------|
D|----------------------|
A|-----------5----------|
E|---3----------------8-|

U WILL KNOW HOW MUCH TO STRUM IN THE BRIDGE

Chorus

            
            
Suggest correction
Creating personal tab
Creating personal tab
You can edit any tab online and save it as your Personal.

You can edit, replace or remove any tab part or add personal notes – all changes will be seen only by you.

Personal tabs can be accessed anytime from any device, even offline.
Learn more »
comments
print report bad tab
4 comments total. Showing first comments.
-1 reply
BroDD 368 Sep 29, 2006 02:29 AM

lol this is nowhere near correct

0 reply
macclad 403 Sep 29, 2006 07:17 AM

Woah! Totally off! Sorry man. Your rhythm and pattern's right but its

G--------
D--------
A---5--3-
E-3------

not

G-------
D-------
A-------
E-3-5-8-

0 reply
macclad 403 Sep 29, 2006 07:18 AM

Mind you, your last note's right, you're just in second position, Which is fine. Just play the 5 on the A instead of the E and you're on.

guest
You may want to rate the tab now too:
select rating
Wanna post a correction for this tab? Suggest correction