Oops, an error
Loading. Please wait.

Two-Seater Bass Tab

version 1
version 1

Whole song

Interactive

899 views 1 this week
1 commentread comment
1 2 3 4 5
1 last vote to show rating
add to favorites
launch autoscroll
font size
0
reset
guitar tuner
Autoscroll
slow
fast
+/-
esc
set tempo
stop
Author
Really easy song from their new album "a hangover You dont deserve" and probably one of 
best, should be able to get it by the first time u play it.

By: Matt Mostovac

intro/verse      x3 (come in after its played once by guitar)
G|---------------------------------------------------------------------------|
D|---------------------------------------------------------------------------|
A|--33333333-22222222--------------------------------------------------------|
E|--------------------55555555-11111111--------------------------------------|


pre chorus
G|---------------------------------------------------------------------------|
D|---------------------------------------------------------------------------|
A|--------------33333333333--------------------------------------------------|
E|--33-33-33-33-------------33-33-33-33-555555555-1-3~-----------------------|


chorus          x2
G|--------------------------------------------------------------------------|
D|--------------------------------------------------------------------------|
A|--3333--------------------------------------------------------------------|
E|-------3333-5555-1111-----------------------------------------------------|


pre verse       x2
G|--------------------------------------------------------------------------|
D|--------------------------------------------------------------------------|
A|--33333333----------------------------------------------------------------|
E|----------333333335555555511111111----------------------------------------|


interlude        x4  (singing starts after first time)
G|--------------------------------------------------------------------------|
D|--------------------------------------------------------------------------|
A|--3-3---------------------------------------------------------------------|
E|------3-3-5-5-1-1--11-----------------------------------------------------|


outro
G|--------------------------------------------------------------------------|
D|--------------------------------------------------------------------------|
A|--------3-----let-it-ring-------------------------------------------------|
E|--1-3-x-------------------------------------------------------------------|


order
-intro/verse (x2 the first time)
-pre chorus (x2)
-chorus (x2)
-pre verse (x2)
-verse (x3)
-pre chorus (x2)
-chorus (x2)
-interlude (x4)
-chorus (x2)
-pre verse (x1)
-outro (x1)
Suggest correction
Give kudos to tab author, rate the tab!
1 2 3 4 5
comments
print report bad tab
1 comment total.
0 reply
I wanna play~ 30 May 20, 2006 08:49 PM

There's a few moving parts in this song that are pretty easy to hear, but it seems like it's a simplified version...

guest
You may want to rate the tab now too:
select rating
Wanna post a correction for this tab? Suggest correction