Oops, an error
Loading. Please wait.

All Systems Go bass

version 1
version 1

Whole song

Interactive

2,019 views 3 this week
1 commentread comment
1 2 3 4 5
x 3
add to favorites
×
Save as Personal and add changes to this tab that will be seen only by you. Learn more ›
×
You can save this tab as Personal to edit and correct it or add notes. All changes will be seen only by you. Learn more »
launch autoscroll
font size
0
reset
guitar tuner
edit
Autoscroll
slow
fast
+/-
esc
set tempo
stop
Author
Band:Box Car Racer
Song:All Systems Go

Tabbed by Jared Lee of 2 Bad Neighbors
Submitted by : Bassjerk
Standard Tuning, EADG

Intro (After first guitar riff)

G:----------------
D:----------------
A:---4------------
E:-5--4---5-4-0---

Verse: (Bass comes in at the middle of the verse, listen to the song for timing)

G:------------------
D:------------------
A:-----4------------
E:--5---5--44-4-----

Chorus:
G:------------------------------------------
D:------------------------------------------
A:-33333-22222-00000------------------------
E:------------------------------1111111-----

Bridge (Part with wierd harmonics) Not sure if its right but it sounds ok

G:--------------------------
D:--------------------------
A:--------------------------
E:-555555555555--5555555555- etc

Outro:
G:------------------------
D:------------------------
A:-----4------------------
E:--5---4-5~(let ring)----

Order:
Intro x4
Verse x4
Chrorus x2
Intro x 2
Verse x4
(Short break)
Chorus x4
Bridge
Chorus x4
(guitar plays intro)
Intro: x1

            
            
Suggest correction
Creating personal tab
Creating personal tab
You can edit any tab online and save it as your Personal.

You can edit, replace or remove any tab part or add personal notes – all changes will be seen only by you.

Personal tabs can be accessed anytime from any device, even offline.
Learn more »
Give kudos to tab author, rate the tab!
1 2 3 4 5
comments
print report bad tab
1 comment total.
0 reply
aurabass20 0 Jun 21, 2002 08:00 PM

Verse: (Bass comes in at the middle of the verse, listen to the song for timing)

G:------------------
D:------------------
A:-----4------------
E:--5---5--44-2-----

guest
You may want to rate the tab now too:
select rating
Wanna post a correction for this tab? Suggest correction