Oops, an error
Loading. Please wait.

Cat Like Thief Tab

version 1
version 1

Whole song

Interactive

25,822 views 54 this week
9 commentsread comments
1 2 3 4 5
x 15
add to favorites
launch autoscroll
font size
0
reset
how to read this tab
guitar tuner
×
Best way to learn
"Cat Like Thief"
Autoscroll
slow
fast
+/-
esc
set tempo
stop
***************************
* Artist: BOXCAR RACER    *
* Song: "Cat Like Thief"  *
* Album: Boxcar Racer     *
* Tabber: J Cruz          *
***************************


Riff A [Guitar 1]
1 -----------------------------------------------------|
2 -----------------------------------------------------|
3 -----------------------------------------------------|
4 ----7-----7-----7-----7-----7-----7-----7-----7------|
5 -00---000---044---444---455---555---555---555---5----|
6 -----------------------------------------------------|
Guitar 1 play the same thing for the rest of the song



Riff A [Guitar 2]
1 -------|
2 -10----|
3 --9----|
4 --7----|
5 -------|
6 -------|
Play this chord when [Guitar 1] play 7



Chorus [Guitar 2]
1 -------|
2 -------|
3 --9----|
4 --x----|
5 --7----|
6 -------|
Play this when the [Guitar 1] play the chorus.


Final Chorus [Guitar2]
1 --------------------------------------|
2 ----12-----12---9---9---9---9---------|
3 -99----999----9---9---9---9---9-------|
4 --------------------------------------|
5 --------------------------------------|
6 --------------------------------------|
Play this on the final chorus.

It's right?
mail: jaca146@latinmail.com
Suggest correction
comments
print report bad tab
9 comments total. Showing first comments.
0 reply
fuzzey82 0 Mar 22, 2003 07:00 PM

good job!

0 reply
Acousticboy 0 Mar 22, 2003 07:00 PM

good tab, except at the end chorus, just move the notes up to the next string b/c the notes are an octave too low

+1 reply
Fisshu 10 Apr 19, 2004 08:00 PM

This is a really good tab, just the end chorus...an octave too low and some of the notes are a fret or two out.

good tab, just the end end chorus:

Final Chorus [Guitar2]

1 ----12------ 12--10--10--10--10--10------|
2 1010--101010---10----9---9---9---9-------|
3 -----------------------------------------|
4 -----------------------------------------|
5 -----------------------------------------|
6 -----------------------------------------|

guest
You may want to rate the tab now too:
select rating
Wanna post a correction for this tab? Suggest correction