Oops, an error
Loading. Please wait.

I Feel So Bass

version 1
version 1

Whole song

Interactive

10,092 views 9 this week
6 commentsread comments
1 2 3 4 5
x 13
add to favorites
launch autoscroll
font size
0
reset
guitar tuner
backing track
0:00
0:00
×
Best way to learn
"I Feel So"
Autoscroll
slow
fast
+/-
esc
set tempo
stop
Author
Main Riff:
G--------------------------------------------
D--------------------------------------------
A-------------555-----------555--------------X6
E---4-33-4-33-----4-33-4-33------------------

Verse:
G--------------------------------------------
D--------------------------------------------
A--------------------------------------------X1
E-----33-22----00-22----33-22----00-22-------

Chorus:
G--------------------------------------------
D--------------------------------------------
A---777777-666666-444444-666666--------------X2
E--------------------------------------------

Main Riff:
G--------------------------------------------
D--------------------------------------------
A-------------555-----------555--------------X2
E---4-33-4-33-----4-33-4-33------------------

Verse:
G--------------------------------------------
D--------------------------------------------
A--------------------------------------------X1
E-----33-22----00-22----33-22----00-22-------

Chorus:
G--------------------------------------------
D--------------------------------------------
A---777777-666666-444444-666666--------------X2
E--------------------------------------------

Main Riff:
G--------------------------------------------
D--------------------------------------------
A-------------555-----------555--------------X4
E---4-33-4-33-----4-33-4-33------------------

Bridge:
just sit around and look pretty because you don't get a bridge part!

Chorus:
G--------------------------------------------
D--------------------------------------------
A---777777-666666-444444-666666--------------X4
E--------------------------------------------
let ring on 4th

There you go 100% right tabs for you to enjoi!
Suggest correction
comments
print report bad tab
6 comments total. Showing first comments.
+3 reply
GreenDayRox 250 Jun 23, 2002 08:00 PM

on the main riff it should go
G----------------
D----------------
A-----------5555-
E-0-33-0-33------
but apart from that, great tab!

0 reply
LilDripsOfBlood 10 Aug 21, 2004 08:00 PM

After listening to the song closely i found that both verses are played through twice and not once. Great tab though, very accurate

-2 reply
Uncommonresults 480 Mar 10, 2005 07:00 PM

the main riff seems totally wrong... it sounds really weird the way you tabbed it... i think its
G-------
D-------
A---5-5-
E-3----- x4

G-------
D-------
A---2-2-
E-3------

Yeah otherwise good

guest
You may want to rate the tab now too:
select rating
Wanna post a correction for this tab? Suggest correction