Oops, an error
Loading. Please wait.

I Feel So tab

version 1
version 1
70,380 views 60 this week
143 commentsread comments
1 2 3 4 5
x 75
add to favorites
×
Save as Personal and add changes to this tab that will be seen only by you. Learn more ›
×
You can save this tab as Personal to edit and correct it or add notes. All changes will be seen only by you. Learn more »
launch autoscroll
font size
0
reset
how to read this tab
guitar tuner
backing track
0:00
0:00
edit
Autoscroll
slow
fast
+/-
esc
set tempo
stop
Boxcar Racer
I feel so
Daniel Rowley


It starts off as a piano then the base the guitar. do this for a while..

e|-------------|
B|-------------|
G|-------------|
D|--5----------|
A|--x----------|
E|--3----------|

then play this along with the base

e|-------------------------------------|
B|-------------------------------------|
G|-------7-----------------------------|
D|-5-(5)-x-----------------------------|
A|-5-----5-----------------------------|
E|-3-----------------------------------|
Listen to the song to find out how many times you play it


[Verse] (x4)

e|-----------------------------------------------|
B|-----------------------------------------------|
G|---4----2----------2---------------------------|
D|-5---4--4-4--2-2-4-4-4-------------------------|
A|-----------------------------------------------|
E|-----------------------------------------------|


[Chorus]

e|-----------------------------------------------|
B|-----------------------------------------------|
G|-9-(x6)-9-(x6)-6-(x6)-8-(x6)-------------------|
D|-9------9------6------8------------------------|
A|-7------6------4------6------------------------|
E|-----------------------------------------------|

[Interlude] 

thingy
e|----------------------------------------------|
B|----------------------------------------------|
G|----------7-(x4)------------------------------|
D|-5-(x6)---x-----------------------------------|
A|-5--------5-----------------------------------|
E|-3--------------------------------------------|
then play this 3 times

e|----------------------------------------------|
B|----------------------------------------------|
G|--4--(x12)------------------------------------|
D|--x-------------------------------------------|
A|--2-------------------------------------------|
E|----------------------------------------------|


[End]

e|----|
B|----|
G|-9--|
D|-9--|
A|-7--|
E|----|



************************************

| x    Dead note
| (n)  Ghost note 

************************************
Suggest correction
Creating personal tab
Creating personal tab
You can edit any tab online and save it as your Personal.

You can edit, replace or remove any tab part or add personal notes – all changes will be seen only by you.

Personal tabs can be accessed anytime from any device, even offline.
Learn more »
comments
print report bad tab
143 comments total. Showing first comments.
0 reply
BoxCarRacer 60 Apr 14, 2002 08:00 PM

Great Job Man!! This is Good!! u should send it to boxcarracer.org so u can have ur name on there site!!

0 reply
LoserPunk182 70 Apr 15, 2002 08:00 PM

Hey, does Box Car Racer have there cd out yet? Iv'e never heard their songs, so I want to hear them!!!

Blink 182 Kicks ASS!!!!

0 reply
fher182 10 Apr 15, 2002 08:00 PM

Not yet but you can download them from internet (they are good! some thing diferent

guest
Wanna post a correction for this tab? Suggest correction