Oops, an error
Loading. Please wait.

I Feel So Tab

version 8
version 8
4,440 views 18 this week
6 commentsread comments
1 2 3 4 5
x 11
add to favorites
×
Save as Personal and add changes to this tab that will be seen only by you. Learn more ›
×
You can save this tab as Personal to edit and correct it or add notes. All changes will be seen only by you. Learn more »
save as personal
new!
launch autoscroll
font size
0
reset
how to read this tab
guitar tuner
backing track
0:00
0:00
Autoscroll
slow
fast
+/-
esc
set tempo
stop
Author
Unregistered
I Feel So
Box Car Racer
Tabbed by shaggs

Standard Tuning EADGBe

~=let ring
pm=palm mute
(*)=you don't have to play it, but it sounds good too.

                 !FOR THE INTRO PLAY THE STUFF BELOW!

e|--------|
B|--------|
G|--------|  Start out the song by bending this chord once.
D|--5~~~~~|  NOTE: have the chord already bended before you strike it 
A|--5~~~~~|        and then slowly unbend it. 
E|--3~~~~~|


e|--------|
B|--------|
G|--------|  Then play this as many times as you see fit
D|--5-----|
A|--x-----|
E|--3-----|


e|---------------------------|
B|---------------------------|
G|-----------------7777------|  Play this 4 times
D|---5-555--5-555--xxxx------|
A|---5-555--5-555--5555------|
E|---0-333--0-333------------|


                 !FOR THE VERSE PLAY THE STUFF BELOW!

2nd guitar

e|----------------------|
B|----------------------|
G|-----4--5--4--2-------|    2nd guitar plays this part four times
D|---5-5-44-22-44-------|
A|----------------------|
E|----------------------|

1st guitar

e|--------------------|
B|--------------------|
G|--------------------|     1st guitar comes in and plays this twice   
D|--55--44-(22)-44----|     when the 2nd guitar is starting to play his
A|--55--44--22--44----|     piece for he third time.
E|--33--22--00--22----|
   \......pm...../

                 !FOR THE CHORUS PLAY THE STUFF BELOW! 


I know this looks crazy, but it sounds right...so
bear with me and try it. the other peple that have tabbed
this have done a brilliant job, but when it came to the
chorus it just didnt sound right, it was to high pitched for
the song, so hear it is.

e|-------------------------------------|
B|-------------------------------------|
G|----------444444--666666--888888-----|  Both guitars play this 
D|--(2222)--444444--666666--888888-----|  4 times
A|---2222---222222--444444--666666-----|
E|---0000------------------------------|


e|------------------------|
B|------------------------|
G|--------------7777------|      Then both guitars play this
D|--5-555-5-555-xxxx------|      4 times 
A|--5-555-5-555-5555------|
E|--0-333-0-333-----------|


Then Verse x1

Then chorus x1

e|------------------------|
B|------------------------|
G|--------------7777------|      Then both guitars play this
D|--5-555-5-555-xxxx------|      4 times for the interlude 
A|--5-555-5-555-5555------|
E|--0-333-0-333-----------|
    \....pm.../


e|-------|
B|-------|
G|--4----|    Then play this as many times as you see
D|--x----|    fit.
A|--2----|
E|-------|

Then Chorus x4

e|------------|
B|------------|
G|------------| Then end on this!!
D|-(2)~~~~~~~~|
A|--2~~~~~~~~~|
E|--0~~~~~~~~~|


Thats it
Rock on!!!!!!!!!!!!!!!!!



************************************

| x    Dead note
| (n)  Ghost note
| ~    Vibrato

************************************
Suggest correction
comments
print report bad tab
6 comments total. Showing first comments.
0 reply
trojanman469 10 Dec 06, 2003 07:00 PM

this is ok and might be what they play but for 1 guitar tab 1 is easyer and it sounds better.

0 reply
harm0n20 226 Aug 13, 2004 08:00 PM

this is pretty good but the verse for guitar uno is somethin like this


e--------------------
b--------------------
g-0-4-0-0-0-4-0-0----
d-5-0-4-4-2-0-5-5----
a--------------------
E--------------------

i think thats somewhat close but i dont really know because i dont have my guitar with me right now. im pretty sure thats how i play it and how they play it.

0 reply
rockstarbowker 283 Aug 26, 2006 06:21 PM

Good tab!

guest
Wanna post a correction for this tab? Suggest correction